Oops, an error
Loading. Please wait.

X-Men - Opening Theme tab

version 1
version 1

Whole song

Interactive

6,298 views 12 this week
no commentswrite comment
1 2 3 4 5
3 more votes to show rating
add to favorites
×
Save as Personal and add changes to this tab that will be seen only by you. Learn more ›
×
You can save this tab as Personal to edit and correct it or add notes. All changes will be seen only by you. Learn more »
launch autoscroll
font size
0
reset
how to read this tab
guitar tuner
edit
Autoscroll
slow
fast
+/-
esc
set tempo
stop
Author
Song: X-Men Opening
Artist: Unknown
Tabber: Tye1989

X-Men opening theme tune, sounds awesome!
Love this tune so I thought I'd tab it out, pretty easy to play if you can do 
your hammer and pulls.
Any complaint's or questions: masamune12003@gmail.com

-----------------------------------------------------------|
-----------------------------------------------------------|
-----6h7p6---------6h7p6----------6h7p6-----------11/16----|
-7h9-------9---7h9-------9----7h9-------9/12-11-9----------|
-------------9-------------10------------------------------|
-----------------------------------------------------------|


--------------------------------------------------------------|
--------------------------------------------------------------|
------9h10p9----------9h10p9----------9h10p9------------14/19-|
10h12-------12---10h12------12---10h12------12/15-14-12-------|
---------------12--------------13-----------------------------|
--------------------------------------------------------------|

-----------------------------------------------------------|
-----------------------------------------------------------|
------------------------------------------------15~~-------|
------------------------------------------12h14------------|
-11-10-8x4-13-11-10x4-15-13-12x4-12h14h15------------------|
-----------------------------------------------------------|

Repeat from beginning and then play:

-----------------------------------------------------------|
-----------------------------------------------------------|
-------9h10p9-------14/19----------------------------------|
-10h12--------12-------------------------------------------|
-----------------12----------------------------------------|
-----------------------------------------------------------|

Cheers! Tye1989

            
            
Suggest correction
Creating personal tab
Creating personal tab
You can edit any tab online and save it as your Personal.

You can edit, replace or remove any tab part or add personal notes – all changes will be seen only by you.

Personal tabs can be accessed anytime from any device, even offline.
Learn more »
Give kudos to tab author, rate the tab!
1 2 3 4 5
comments
print report bad tab
guest
You may want to rate the tab now too:
select rating
Wanna post a correction for this tab? Suggest correction