Oops, an error
Loading. Please wait.

X-Men Theme tab

version 2
version 2

Whole song

Interactive

3,491 views 1 this week
3 commentsread comments
1 2 3 4 5
1 last vote to show rating
add to favorites
×
Save as Personal and add changes to this tab that will be seen only by you. Learn more ›
×
You can save this tab as Personal to edit and correct it or add notes. All changes will be seen only by you. Learn more »
launch autoscroll
font size
0
reset
how to read this tab
guitar tuner
edit
Autoscroll
slow
fast
+/-
esc
set tempo
stop
USE A FLANGER OR PHASER FOR THE TRUE SOUND!!
E|----------------------------------------------------------------------------------------|
A|--10h13--------------10----10h13--------------11----10h13-------------------------------|
D|--------10h13-12--10-------------10h13-12--10-------------10h13-12--10-13----12-10~-----|
G|----------------------------------------------------------------------------------------|
B|----------------------------------------------------------------------------------------|
E|----------------------------------------------------------------------------------------|


E|----------------------------------------------------------------------------------------|
A|----------------------------------------------------------------------------------------|
D|--10h13--------------10----10h13--------------11----10h13-------------------------------|
G|--------10h13-12--10-------------10h13-12--10-------------10h13-12--10-13----12-10~-----|
B|----------------------------------------------------------------------------------------|
E|----------------------------------------------------------------------------------------|


E|----------------------------------------------------------------------|
A|--11-10-8-11-10-8-11-10-8-11-10-8-13-11-10-13-11-10-13-11-10-13-11-10-|
D|----------------------------------------------------------------------|
G|----------------------------------------------------------------------|
B|----------------------------------------------------------------------|
E|----------------------------------------------------------------------|
    P  P  P P  P  P  P  P P  P  P P  P  P  P  P  P  P  P  P  P  P  P  P

E|----------------------------------------                    E|-------------|
A|--15-13-11-15-13-11-15-13-11-15---------                    A|-------------|
D|-------------------------------13-------REPEAT RIFF BUT END D|-------------|
G|---------------------------------13-----WITH THIS 2ND TIME  G|--*10-*12~~--|
B|-----------------------------------15~~-                    B|-------------|
E|----------------------------------------                    E|-------------|
     P  P  P  P  P  P  P  P  P
~LEGEND~
* pinch harmonic
~ Vibratio
P palm mute
H hammer on

THAT'S IT FEEL FREE TO COMMENT. FIRST TAB BTW SO DON'T BE TOO HARSH LOL.

            
            
Suggest correction
Creating personal tab
Creating personal tab
You can edit any tab online and save it as your Personal.

You can edit, replace or remove any tab part or add personal notes – all changes will be seen only by you.

Personal tabs can be accessed anytime from any device, even offline.
Learn more »
Give kudos to tab author, rate the tab!
1 2 3 4 5
comments
print report bad tab
3 comments total.
0 reply
T-man2008 10 May 08, 2009 02:02 PM

Just to let everyone know, he has done the tab upside down.

-1 reply
synyster_schect 30 May 08, 2009 02:04 PM

ye i didn't use the templates. THEY ARE THE RIGHT NOTES ON THE RIGHT STRINGS THOUGH. just so you know lol.

0 reply
Oligog 10 Nov 28, 2011 07:24 PM

Glad i read the comments before i called you deaf, bro.

guest
You may want to rate the tab now too:
select rating
Wanna post a correction for this tab? Suggest correction