Oops, an error
Loading. Please wait.

God Rest Ye Merry Gentlemen tab

version 1
version 1

Whole song

20,310 views 66 this week
1 commentread comment
1 2 3 4 5
x 11
add to favorites
×
Save as Personal and add changes to this tab that will be seen only by you. Learn more ›
×
You can save this tab as Personal to edit and correct it or add notes. All changes will be seen only by you. Learn more »
launch autoscroll
font size
0
reset
how to read this tab
guitar tuner
edit
Autoscroll
slow
fast
+/-
esc
set tempo
stop
#----------------------------------PLEASE NOTE---------------------------------#
#This file is the author's own work and represents their interpretation of the #
#song. You may only use this file for private study, scholarship, or research. #
#------------------------------------------------------------------------------##
>From jjt@nova.np.ac.sg (Jones Jack Trevor)
~Subject: TAB - God Rest Ye ...
~Date: 17 Dec 1993 11:24:32 +0800


>In article <1993Dec16.112256.2666@bradford.ac.uk> 
G.Jackson@bradford.ac.uk (G JACKSON) writes:
>>
>>Does anyone have a good TAB version of this carol please?

Here you go, GRYMY arranged by David Cohen on "How to Play Folk Guitar"
Kicking Mule Records (a long time ago) 

Play the first part twice with the two slightly different last bars then the
next part.
                                                        1st Time through
        Am                                                E
|---||-----0---0------|----------------|----------------|-0-------------||
|---||-------------3--|-1---0----------|-----0---1---3--|-0-------------||
|-2-||-2---2---2------|---------2---0--|-2--------------|-1----------2--||
|---||-------------3--|-2---0----------|-----0---2---3--|-2-------------||
|---||-0--------------|---------0------|-0--------------|-2-------------||
|---||----------------|-------------3--|----------------|-0-------------||
  |    |   |   |   |    |   |   |   |    |   |   |   |    |   |   |   |
                                                        2nd time through
                                                        |-0----------0--||
                                                        |-0-------------||
                                                        |-1-------------||
                                                        |-2-------------||
                                                        |-2-------------||
                                                        |-0-------------||
                                                          |   |   |   |

Dm                                 Am
|-1-------0---1--|-3---5---0------|----------------|---------------|
|-----3----------|-------------3--|-1-------0---1--|-3------1---3--|
|-2-------0---2--|-3---5---0------|-----2----------|---------------|
|-----3----------|-------------3--|-2-------0---2--|-3------2---3--|
|----------------|----------------|----------------|---------------|
|----------------|----------------|----------------|---------------|
  |   |   |   |    |   |   |   |    |   |   |   |    |   |   |   |  

Dm                                 
|-0-------1---0--|-0--------------|----------------|---------------|
|----------------|-----3---1---0--|---------1P0----|-3------1---3--|
|-0-------2---0--|-0--------------|-2-----------2--|---------------|
|----------------|-----3---2---0--|---------2------|-3------2---3--|
|----------------|----------------|-0-----------0--|---------------|
|----------------|----------------|----------------|---------------| 
  |   |   |   |    |   |   |   |    |   |   |   |    |   |   |   |    

                                   Am      G        Am
|-0---1---3---5--|-0--------------|-----0-------0--|---|
|----------------|-----3---1---0--|-----1-------0--|---|
|-0---2---3---5--|-0--------------|---2---2-------0|---|
|----------------|-----3---2---0--|-----------0----|---|
|----------------|----------------|-0--------------|-0-|
|----------------|----------------|---------3------|---|
  |   |   |   |    |   |   |   |    |   |   |   |    |     


Selamat Hari Raya Christmas
-- 
J. Trevor Jones - jjt@np.ac.sg - Ngee Ann Polytechnic - Singapore 2159  



            
            
Suggest correction
Creating personal tab
Creating personal tab
You can edit any tab online and save it as your Personal.

You can edit, replace or remove any tab part or add personal notes – all changes will be seen only by you.

Personal tabs can be accessed anytime from any device, even offline.
Learn more »
comments
print report bad tab
1 comment total.
0 reply
AcousticNutt 10 Dec 23, 2008 09:36 AM

very nice tab, I do have a correction though, the last part on the first time through the beginning should be
E
|-0-------------||
|-0----------5--||
|-1-------------||
|-2-------------||
|-2-------------||
|-0-------------||

guest
Wanna post a correction for this tab? Suggest correction