Oops, an error
Loading. Please wait.

Here Comes Santa Claus tab

version 1
version 1

Whole song

Interactive

16,448 views 48 this week
1 commentread comment
1 2 3 4 5
x 3
add to favorites
×
Save as Personal and add changes to this tab that will be seen only by you. Learn more ›
×
You can save this tab as Personal to edit and correct it or add notes. All changes will be seen only by you. Learn more »
launch autoscroll
font size
0
reset
how to read this tab
guitar tuner
edit
Autoscroll
slow
fast
+/-
esc
set tempo
stop
Author
Difficulty
                             Here comes santa claus                        Tabbed by:Jzag96
Email:J_music_96@yahoo.com

Tuning:Standard EADGBE

line 1

e|----0---------------0-----------1-1-0-1------------------------------------|
B|-------3-3-1----------3-3-1------------------------------------------------|
G|0--------------0--------------0--------------------------------------------|
D|---------------------------------------------------------------------------|
A|---------------------------------------------------------------------------|
E|---------------------------------------------------------------------------|


line 2

e|---1-1-0-------------1-0-------------3-3-2-3-------------------------------|
B|--------3-3---------------3-3----------------------------------------------|
G|0----------------0---------------0-----------------------------------------|
D|---------------------------------------------------------------------------|
A|---------------------------------------------------------------------------|
E|---------------------------------------------------------------------------|

line 3

e|------5-8-7-5--3--7-5-3-1-1-5-3-1-0----------------------------------------|
B|---------------------------------------------------------------------------|
G|---------------------------------------------------------------------------|
D|---------------------------------------------------------------------------|
A|---------------------------------------------------------------------------|
E|---------------------------------------------------------------------------|

line 4

e|----5-8-7-5-3-5-3-0-3-1-0----------------------------------------------------|
B|--------------------------3-1------------------------------------------------|
G|-----------------------------------------------------------------------------|
D|-----------------------------------------------------------------------------|
A|-----------------------------------------------------------------------------|
E|-----------------------------------------------------------------------------|

| /  slide up
| \  slide down
| h  hammer-on
| p  pull-off
| ~  vibrato
| +  harmonic
| x  Mute note
===============================================================================

            
            
Suggest correction
Creating personal tab
Creating personal tab
You can edit any tab online and save it as your Personal.

You can edit, replace or remove any tab part or add personal notes – all changes will be seen only by you.

Personal tabs can be accessed anytime from any device, even offline.
Learn more »
Give kudos to tab author, rate the tab!
1 2 3 4 5
comments
print report bad tab
1 comment total.
0 reply
wtbeers 10 Dec 12, 2014 08:07 AM

E---0---------0---------1-1-1-0-1-|---1-1-0-1---1-1-0-1-3-3-3-2-3-|
B-----3-3-1-----3-3-1-------------|-------------------------------|
G-0---------0---------0-----------|-0---------0-------------------|
D---------------------------------|-------------------------------|
A---------------------------------|-------------------------------|
E---------------------------------|-------------------------------|

E-5-8-7-5-3-7-5-3-1-1-5-3-1-0-|-5-8-7-5-3-5-3-0-3-1-0-3-3-3-1-0-----|
B-----------------------------|---------------------------------3-1-|
G-----------------------------|-------------------------------------|
D-----------------------------|-------------------------------------|
A-----------------------------|-------------------------------------|
E-----------------------------|-------------------------------------|

guest
You may want to rate the tab now too:
select rating
Wanna post a correction for this tab? Suggest correction