Oops, an error
Loading. Please wait.

Joy To The World bass

version 1
version 1

Whole song

616 views 30 this week
no commentswrite comment
1 2 3 4 5
1 last vote to show rating
add to favorites
×
Save as Personal and add changes to this tab that will be seen only by you. Learn more ›
×
You can save this tab as Personal to edit and correct it or add notes. All changes will be seen only by you. Learn more »
launch autoscroll
font size
0
reset
guitar tuner
edit
Autoscroll
slow
fast
+/-
esc
set tempo
stop
Author
---------------------------------------------------------------------
                 Joy to the World - Traditional Carol
---------------------------------------------------------------------
Tabbed by: RagnaarMN
Tuning: Standard
Key of D Major, 2 sharps

  Joy     to  the  world       the  Lord             come        let
G|----------------|----------------|----------------|----------------|
D|0-------0---0---|0---------------|----------------|0---------------|
A|----------------|----------------|0-------0-------|----------------|
E|----------------|------------3---|----------------|------------2---|

  earth       re - ceive       her  King                         Let
G|----------------|----------------|----------------|----------------|
D|----------------|----------------|0---------------|------------0---|
A|----------------|0-----------0---|----------------|----------------|
E|3-----------3---|----------------|----------------|----------------|

  ev -    'ry      heart       pre - pare   Him      room        And
G|----------------|----------------|----------------|----------------|
D|0-------0-------|0-----------0---|0-------0-------|0-----------0---|
A|----------------|----------------|----------------|----------------|
E|----------------|----------------|----------------|----------------|

  Heaven  Nature   Sing        And  Heaven  Nature   Sing        and
G|----------------|----------------|----------------|----------------|
D|0-------0-------|0-----------0---|----------------|----------------|
A|----------------|----------------|0-------0-------|0-----------0---|
E|----------------|----------------|----------------|----------------|

  Heaven      and  Heaven      and  Na -    ture     Sing 
G|----------------|----------------|----------------|----------------|
D|0---------------|0---------------|----------------|0---------------|
A|----------------|----------------|0-------0-------|----------------|
E|--------3-------|------------3---|----------------|----------------|


======================================================================

            
            
Suggest correction
Creating personal tab
Creating personal tab
You can edit any tab online and save it as your Personal.

You can edit, replace or remove any tab part or add personal notes – all changes will be seen only by you.

Personal tabs can be accessed anytime from any device, even offline.
Learn more »
Give kudos to tab author, rate the tab!
1 2 3 4 5
comments
print report bad tab
guest
You may want to rate the tab now too:
select rating
Wanna post a correction for this tab? Suggest correction