Oops, an error
Loading. Please wait.

Rudolph The Red-Nosed Reindeer tab

version 2
version 2

Whole song

Interactive

Video

415,309 views 1,263 this week
48 commentsread comments
1 2 3 4 5
x 339
add to favorites
×
Save as Personal and add changes to this tab that will be seen only by you. Learn more ›
×
You can save this tab as Personal to edit and correct it or add notes. All changes will be seen only by you. Learn more »
launch autoscroll
font size
0
reset
how to read this tab
guitar tuner
edit
Autoscroll
slow
fast
+/-
esc
set tempo
stop
(This is a simple way to play the Christmas classic,
Rudlph the Red Nosed Reindeer.) 
(I left out the intro.)

e|-0-2---0-----5---2---0-----------|-0-2-0-2-0---5---4---------------|
B|---------2-----------------------|---------------------------------|
G|---------------------------------|---------------------------------|
D|---------------------------------|---------------------------------|
A|---------------------------------|---------------------------------|
E|---------------------------------|---------------------------------|

e|-------------4---2---0-----------|-0-2-0-2-0---2-------------------|
B|-3-5---3-0-----------------------|-----------------2---------------|
G|---------------------------------|---------------------------------|
D|---------------------------------|---------------------------------|
A|---------------------------------|---------------------------------|
E|---------------------------------|---------------------------------|

e|-0-2---0-----5---2---0-----------|-0-2-0-2-0---5---4---------------|
B|---------2-----------------------|---------------------------------|
G|---------------------------------|---------------------------------|
D|---------------------------------|---------------------------------|
A|---------------------------------|---------------------------------|
E|---------------------------------|---------------------------------|

e|-------------4---2---0-----------|-0-2-0-2-0---7---5---------------|
B|-3-5---3-0-----------------------|---------------------------------|
G|---------------------------------|---------------------------------|
D|---------------------------------|---------------------------------|
A|---------------------------------|---------------------------------|
E|---------------------------------|---------------------------------|

e|-2---2---5---2---0------0--------|-----2---------------------------|
B|----------------------2----------|-3-------5---3---2---------------|
G|---------------------------------|---------------------------------|
D|---------------------------------|---------------------------------|
A|---------------------------------|---------------------------------|
E|---------------------------------|---------------------------------|

e|-------------2---4---4---4-------|-5---5---4---2-------------------|
B|-0---2---5-----------------------|-----------------5---3-0---------|
G|---------------------------------|---------------------------------|
D|---------------------------------|---------------------------------|
A|---------------------------------|---------------------------------|
E|---------------------------------|---------------------------------|

e|-0-2---0-----5---2---0-----------|-0-2-0-2-0---5---4---------------|
B|---------2-----------------------|---------------------------------|
G|---------------------------------|---------------------------------|
D|---------------------------------|---------------------------------|
A|---------------------------------|---------------------------------|
E|---------------------------------|---------------------------------|

e|-------------4---2---0-----------|-0-2-0-2-0---7---5---------------|
B|-3-5---3-0-----------------------|---------------------------------|
G|---------------------------------|---------------------------------|
D|---------------------------------|---------------------------------|
A|---------------------------------|---------------------------------|
E|---------------------------------|---------------------------------|

e|-0---2---0---2---0-------7-------|-5-------------------------------|
B|---------------------------------|---------------------------------|
G|---------------------------------|---------------------------------|
D|---------------------------------|---------------------------------|
A|---------------------------------|---------------------------------|
E|---------------------------------|---------------------------------|

            
            
Suggest correction
Creating personal tab
Creating personal tab
You can edit any tab online and save it as your Personal.

You can edit, replace or remove any tab part or add personal notes – all changes will be seen only by you.

Personal tabs can be accessed anytime from any device, even offline.
Learn more »
comments
print report bad tab
48 comments total. Showing first comments. show 1 bad comment
+19 reply
atomicryderjtm 10 Jan 30, 2003 07:00 PM

on the sixth scale when it goes 19-10-9-7-5-3-2, the 2 should be a 0 it sounds better

+4 reply
Exit0435 10 Nov 01, 2003 07:00 PM

great tab best in a while

guest
Wanna post a correction for this tab? Suggest correction