Oops, an error
Loading. Please wait.

Rudolph The Red-Nosed Reindeer tab

version 4
version 4

Whole song

Interactive

Video

10,810 views 765 this week
5 commentsread comments
1 2 3 4 5
x 8
add to favorites
×
Save as Personal and add changes to this tab that will be seen only by you. Learn more ›
×
You can save this tab as Personal to edit and correct it or add notes. All changes will be seen only by you. Learn more »
launch autoscroll
font size
0
reset
how to read this tab
guitar tuner
edit
Autoscroll
slow
fast
+/-
esc
set tempo
stop
                       RUDOLPH THE RED-NOSED REINDEER
                     Arranged for guitar by Mark Leslie
                  * * * * * * * * * * * * * * * * * * * *

ive seen this on here before i wanted to make it easier tho this may not be right
but oh well

           <----------------------------- repeat -->

e|--------|---------------------|------------------|
B|-----0--|--1---------0--------|------------------|
G|--2-----|-----2---------0-----|--2---------2--0--|
D|--------|--------3---------2--|-----3------------|
A|--------|---------------------|--------5---------|
E|--------|---------------------|------------------|

  You Know  Dasher +  Dancer +    Prancer + Vixen....


|-----------------|---------------|------------------|-------------------|
|-----------------|---------------|------------------|-------------------|
|-----------------|--2------2--4--|--5--5---5--4--2--|-0------0----------|
|--2---2---2---2--|---------------|------------------|-------------------|
|-----------------|---------------|------------------|-------------------|
|-----------------|---------------|------------------|-------------------|

   But do you re-  call   the most famous reindeer of  all?


|--------------------|-----------|---------------------|-----------------|
|-----------------1--|-----------|------------------1--|---0-------------|
|--0---2---0---------|--2----0---|--0--2--0--2--0------|-----------------|
|--------------2-----|-----------|---------------------|-----------------|
|--------------------|-----------|---------------------|-----------------|
|--------------------|-----------|---------------------|-----------------|

  Rudolph the red nosed reindeer,  had a ver-y shin-y     nose


|-------------------|----------|-------------------------|---------------|
|----------------0--|----------|-------------------------|---------------|
|-----0-------------|--2----0--|--0---2---0---2---0---2--|---------------|
|--3-----3---0------|----------|-------------------------|---2-----------|
|-------------------|----------|-------------------------|---------------|
|-------------------|----------|-------------------------|---------------|

 And if you  ev--er    saw  it, you would ev-en  say  it   glows


|--------------------|-----------|------------------------|--------------|
|-----------------1--|-----------|---------------------1--|---0----------|
|--0---2---0---------|--2----0---|--0--2---0----2--0------|--------------|
|--------------2-----|-----------|------------------------|--------------|
|--------------------|-----------|------------------------|--------------|
|--------------------|-----------|------------------------|--------------|

  All of  the  other    reindeer  used to laugh + call him  names


|-------------------|----------|-------------------------|---------------|
|----------------0--|----------|----------------------3--|---1-----1-----|
|-----0-------------|--2----0--|--0---2---0---2----------|---------------|
|--3-----3---0------|----------|------------------0------|---------------|
|-------------------|----------|-------------------------|---------------|
|-------------------|----------|-------------------------|---------------|

 They never let poor   Rudolph   join in   any    reindeer  games


|-----------------|---------------|----------------|---------------------|
|----------1------|---------------|----------------|---------2-----------|
|--2---2-------2--|--0---------0--|-----2---0------|---------------------|
|-----------------|-------2-------|--3----------3--|--2------------------|
|-----------------|---------------|----------------|---------------------|
|-----------------|---------------|----------------|---------------------|

 Then one  fogg-y   Christmas  eve   Santa came to   say


|-----------------|---------------|--------------------|-----------------|
|-----------------|--0---0---0----|--1----1----0-------|-----------------|
|----------0---2--|---------------|-----------------2--|--0--------------|
|--0---2----------|---------------|--------------------|-------3----0----|
|-----------------|---------------|--------------------|-----------------|
|-----------------|---------------|--------------------|-----------------|

  Rudolph with your nose so bright  Won't you guide my  sleigh tonight?


|--------------------|-----------|--------------------------|------------|
|-----------------1--|-----------|-----------------------1--|---0--------|
|--0---2---0---------|--2----0---|--0---2---0---2---0-------|------------|
|--------------2-----|-----------|--------------------------|------------|
|--------------------|-----------|--------------------------|------------|
|--------------------|-----------|--------------------------|------------|

 Then how the reindeer loved him   as they shouted  out with   glee


|----------------------|----------|--------------------------|-----------|
|-------------------0--|----------|-----------------------3--|--1--------|
|------0---------------|--2----0--|--0----2---0---2---0------|-----------|
|--3-------3---0-------|----------|--------------------------|-----------|
|----------------------|----------|--------------------------|-----------|
|----------------------|----------|--------------------------|-----------|

  Rudloph the red nosed  reindeer  you'll go down in his--to---ry!

            
            
Suggest correction
Creating personal tab
Creating personal tab
You can edit any tab online and save it as your Personal.

You can edit, replace or remove any tab part or add personal notes – all changes will be seen only by you.

Personal tabs can be accessed anytime from any device, even offline.
Learn more »
There is a new version of this tab from 6 days ago which you may like more. Go check it out:
comments
print report bad tab
5 comments total. Showing first comments.
0 reply
richyrich55 20 Sep 02, 2006 12:42 PM

The last note should be on the second string, first fret.

0 reply
richyrich55 20 Sep 02, 2006 12:43 PM

The last note should be 2nd string first fret.

0 reply
richyrich55 20 Sep 02, 2006 12:43 PM

Oops one to many clicks onthe mouse button.

guest
Wanna post a correction for this tab? Suggest correction