Oops, an error
Loading. Please wait.

Age Of Empires 2 The Conquerors - Music 2 Pudding Pie tab

version 1
version 1

Whole song

234 views 6 this week
no commentswrite comment
1 2 3 4 5
3 more votes to show rating
add to favorites
×
Save as Personal and add changes to this tab that will be seen only by you. Learn more ›
×
You can save this tab as Personal to edit and correct it or add notes. All changes will be seen only by you. Learn more »
launch autoscroll
font size
0
reset
how to read this tab
guitar tuner
edit
Autoscroll
slow
fast
+/-
esc
set tempo
stop
------------------------------------------------------------------------------------------------------------
                             Age of Empires 2 The Conquerors Music 2 (Pudding Pie) - Misc Computer Games
------------------------------------------------------------------------------------------------------------
I apologize in advance for not getting the awesome classical guitar part while the flute plays. If
anyone knows how it goes please email me or edit this tab. Enjoy :)

E-mail: Shockomega@yahoo.com

Symbols: x=muted note

Tuning: Eb Ab Db Gb Bb eb
                                                      Down Stroke
e|---------------------------------------------------------------------------|
B|------------4--3----4-------------4--3----1----------0---------------------|
G|---------1----------3----------1----------------4----0---------------------|
D|------3-------------1-------3----------------3-------2---------------------|
A|-----------------------------------------------------2---------------------|
E|---1---------------------1---------------------------0----0--0--3----------|
                               Up Stroke
e|---------------------------------------------------------------------------|
B|------------3-------------4----1-------------4--3----4-------------4--3----|
G|---------3-------------3-------1----------1----------3----------1----------|
D|------3-------------4----------3-------3-------------1-------3-------------|
A|---1---------------------------3-------------------------------------------|
E|-----------------2-------------1----1---------------------1----------------|
               Up Stroke                               Up Stroke
e|-----------------------------------------------------------------5---------|
B|---1-----------0-------------------------3-----------4----1----------------|
G|---------4-----0----------------------3-----------3-------1----------------|
D|------3--------2-------------------3-----------4----------3----------------|
A|---------------2----------------1-------------------------3----------------|
E|---------------0----0x--0x--3x--------------2-------------1----------------|

                  Play this 6x                        Play this 7x
e|---1-----------|-1----------|--1-------------------|-1----------|----------|
B|---x-----2-----|-------2----|------2---------------|-------2----|----------|
G|---3--3-----3--|----3-----3-|----3---3-------3-----|----3-----3-|----------|
D|---3-----------|------------|--------------6-------|------------|----------|
A|---------------|------------|------------3---------|------------|----------|
E|---------------|------------|----------4-----------|------------|----------|
                        Play this 6x               Up Stroke
e|---1-----------------|-1----------|--1-------------1-----------------------|
B|-------2-------------|-------2----|------2---4-----1-----------------------|
G|-----3---3-------3---|----3-----3-|----3---3-------1-----------------------|
D|---------------6-----|------------|----------------3-----------------------|
A|-------------3-------|------------|----------------3-----------------------|
E|-----------4---------|------------|----------------1-----------------------|
    (Pretty Harp)       Up Stroke(Guitar)  (Pretty Harp)
e|---------8--6-------|---1--------------|---------8--6----------------------|
B|------6--------9--8-|---1--------------|------6--------9--8----------------|
G|---5--------------8-|---1--------------|---5--------------8----------------|
D|--------------------|---3--------------|-----------------------------------|
A|--------------------|---3--------------|-----------------------------------|
E|--------------------|---1--------------|-----------------------------------|
    End of Harp                   Lead part of song
e|---------------11-13-|---15--16--20--18--16--15-------15---16--15-----------|
B|-------------9-------|---------------------------16-------------------------|
G|--------8-10---------|------------------------------------------------------|
D|-----10--------------|------------------------------------------------------|
A|---8-----------------|------------------------------------------------------|
E|---------------------|------------------------------------------------------|

e|---15--16--20--18--16--15--------------------------15--18---18--17--15--14-|
B|---------------------------15---16---17----16--17--------------------------|
G|---------------------------------------------------------------------------|
D|---------------------------------------------------------------------------|
A|---------------------------------------------------------------------------|
E|---------------------------------------------------------------------------|

e|---17--13----17----20--------------21--20----------------------------------|
B|-----------------------21------21----------19--21--18----------------------|
G|---------------------------18----------------------------------------------|
D|---------------------------------------------------------------------------|
A|---------------------------------------------------------------------------|
E|---------------------------------------------------------------------------|

            
            
Suggest correction
Creating personal tab
Creating personal tab
You can edit any tab online and save it as your Personal.

You can edit, replace or remove any tab part or add personal notes – all changes will be seen only by you.

Personal tabs can be accessed anytime from any device, even offline.
Learn more »
Give kudos to tab author, rate the tab!
1 2 3 4 5
comments
print report bad tab
guest
You may want to rate the tab now too:
select rating
Wanna post a correction for this tab? Suggest correction