Oops, an error
Loading. Please wait.

Backyard Basketball Theme tab

version 1
version 1

Whole song

Interactive

886 views 1 this week
1 commentread comment
1 2 3 4 5
2 more votes to show rating
add to favorites
×
Save as Personal and add changes to this tab that will be seen only by you. Learn more ›
×
You can save this tab as Personal to edit and correct it or add notes. All changes will be seen only by you. Learn more »
launch autoscroll
font size
0
reset
how to read this tab
guitar tuner
edit
Autoscroll
slow
fast
+/-
esc
set tempo
stop
Author
This song is on all the backyard basketball games. Go to select player and click on Amir
Kahn. You should hear the guitar in the backround. It should be 100% accurrate.

By: Knights Of Rockville
Song: Rock Out
Composer: Achmed Kahn
Tuning: Standard

---11---10---------|---------9---8------------|
-------------------|--------------------------|Intro
-------------------|--------------------------|
-------------------|--------------------------|
-------------------|-----------------x/x/x/x/x|
-------------------|----------------x/x/x/x/x-|

--------------------|
--6---6-------------|Main Riff
----5----3h5--------|play 2x
--------------------|
--------------------|
--------------------|

---13---13-------------------------------|
-------------16--13----------------------|
---------------------15b(16)r13----------|
---------------------------------15~~~---|
-----------------------------------------|
-----------------------------------------|

Then Main Riff again (2x)

-----13--13---------18b(20)r16---------|
--------------------------------18~~~--|
---------------------------------------|
---------------------------------------|
---------------------------------------|
---------------------------------------|

-------6--6----6--6----6--6-----6--6---|
-------6--6----6--6----6--6-----6--6---|
----8b------8b------8b-------8b--------|
---------------------------------------|
---------------------------------------|
---------------------------------------|

----13---13-------------------|
--------------13--------------|
------------------13--10/-----|
------------------------------|
------------------------------|
------------------------------|

---11--11---10------------------------------------------|
----------------13--11---13---11--14---13-11------------|
----------------------------------------------12-10-9~--|
--------------------------------------------------------|
--------------------------------------------------------|
--------------------------------------------------------|

--------------------|
--6-----------------|
-----5--3--2~~~~~~--|
--------------------|
--------------------|
--------------------|

Enjoy this classic rock song on the sports game!

Here is another version of Achmeds theme. You can find this on Backyard Skateboarding

Tuning: E,A,D,G,B,e

-------------------------------------------|
---3-xxxxxx--------------------------------|repeat 2x
---2-xxxxxx--------------3-xxxxxx---0-----.|
---0-xxxxxx---3-xxxxxx---3-xxxxxx---0-----.|
--------------3-xxxxxx---1-xxxxxx---x------|
--------------1-xxxxxx--------------3------|

Play riff one over this solo
----------------------------------------------------------------|
--15p10h13t15p10h13t15p10h13t15p10p6h8t10p6h8t10p6h8t10p6h8t10--|
----------------------------------------------------------------|
----------------------------------------------------------------|
----------------------------------------------------------------|
----------------------------------------------------------------|

---------------------------------------------|
--6h8t11p6h8t11p6h8t11p6h8t13p6h8t13p6h8t13--|
---------------------------------------------|
---------------------------------------------|
---------------------------------------------|
---------------------------------------------|

--------------------------------------------------------13b~~~--|
--13b-13b-13b-13----13b-13b-13b-13----13b-13b-13b-13------------|play this
-----------------14----------------14----------------14--------.|riff one 
---------------------------------------------------------------.|time then
----------------------------------------------------------------|use the 
----------------------------------------------------------------|octave pedal

--------------------------------------------|
--------------------------------------------|
-----55555555555555555555555555555555555555-|palm mute the chords
-----55555555555555555555555555555555555555-|
-----33333333333333333333333333333333333333-|
--17/---------------------------------------|
 
Trill solo. Play the muted chords over this solo
--8-10-8-10-8-10-8-10-8-10-9-11-9-11-9-11-9-11-10-12-10-12-10-12-10-12--|cont
------------------------------------------------------------------------|up
------------------------------------------------------------------------|to
------------------------------------------------------------------------|the
------------------------------------------------------------------------|20th
------------------------------------------------------------------------|fret

--20b22~~~~~~~~~~~~~~~~~~~~~~~~~~~--|
------------------------------------|
------------------------------------|
------------------------------------|
------------------------------------|
------------------------------------|

Then repeat riff one

The last version for now is the concert that they play in on the Backyard
Skateboarding game

Amir- Drums
Achmed- Vocals and Lead Guitar (E,A,D,G,B,e) G1
Achmed's friend- Rythem Guitar (E,A,D,G,B,e) G2

---------------------------------------------|
---------------------------------------------|Let it ring
--2------------------------------------------|G2
--0------------------------------------------|
--0------------------------------------------|
---------------------------------------------|

--3--2-------3--2-----------3--2---------------|
--3--3-------3--3-----------3--3------3-----3--|repeat through out the song
--0--2-------0--2-----------0--2----0-----0----|G2
--0--0-------0--0-----------0--0---------------|
--x--x-------x--x-----------x--x--3-----2------|
--3--2--3333-3--2--3333333--3--2---------------|
       (pm--)     (pm-----)
Little solo
-----------------14-13----------------14--|
--15-14-15-14-15-------15-14-15-14-15-----|use tremelo bar
------------------------------------------|through out this
------------------------------------------|riff
------------------------------------------|G1
------------------------------------------|(it's a goofy riff)

-----------------------------------------------|
-----------------------------------------------|repeat during
--4xxxxx-4xxxxx-4xxxxx-4xxxxx-4xxxxx-4xxxxx---.|"And the people will know
--4xxxxx-4xxxxx-4xxxxx-4xxxxx-4xxxxx-4xxxxx---.|when you fight to the top
--2xxxxx-2xxxxx-2xxxxx-2xxxxx-2xxxxx-2xxxxx----|and you wi_____n! Wo!"
-----------------------------------------------|

That's it for now

            
            
Suggest correction
Creating personal tab
Creating personal tab
You can edit any tab online and save it as your Personal.

You can edit, replace or remove any tab part or add personal notes – all changes will be seen only by you.

Personal tabs can be accessed anytime from any device, even offline.
Learn more »
Give kudos to tab author, rate the tab!
1 2 3 4 5
comments
print report bad tab
1 comment total.
0 reply
mikedeit 1,163 Feb 24, 2005 07:00 PM

Correction
This should be added close to the part, before the outro solo

e----18-18--18-18-18-----16------
B----------------------------18--
G--------------------------------
D--------------------------------
A--------------------------------
E--------------------------------

e--13--13----------
B---------13-------
G------------13-10/
D------------------
A------------------
E------------------

guest
You may want to rate the tab now too:
select rating
Wanna post a correction for this tab? Suggest correction