Oops, an error
Loading. Please wait.

Beautiful Katamari - Into The Sky bass

52 views 1 this week
no commentswrite comment
1 2 3 4 5
3 more votes to show rating
add to favorites
×
Save as Personal and add changes to this tab that will be seen only by you. Learn more ›
×
You can save this tab as Personal to edit and correct it or add notes. All changes will be seen only by you. Learn more »
launch autoscroll
font size
0
reset
guitar tuner
edit
Autoscroll
slow
fast
+/-
esc
set tempo
stop
About this tab version
Very straightfoward song, there are only a few passages that shouldn't be much troble except for the speed. Was this info helpful? Yes No
INTO THE SKY
Beautiful Katamari

[Intro]
Gb|-----------------|-----------------|-----------------|-----------------|
Db|-----------------|-----------------|-----------------|-----------------|
Ab|-7-7-7-7-7-7-7-7-|-7-7-7-7-7-7-7-7-|-----------------|-----------------| x2
Eb|-----------------|-----------------|-7-7-7-7-7-7-7-7-|-9-9-9-9-9-9-9-9-|

    1 + 2 + 3 + 4 +   1 + 2 + 3 + 4 +
Gb|-----------------|-----------------|
Db|-----------------|-----------------|
Ab|-----------------|-----------------|
Eb|-5-5---0-0---5-4-|---5-0-5-5-5-7-7-|

[Verse]
Gb|-----------------|-----------------|-----------------|-----------------|
Db|-----------------|-----------------|-----------------|-----------------|
Ab|-----------------|-----------------|-----------------|-----------------| x4
Eb|-0-0-0-0-0-0-0-0-|-4-4-4-4-4-4-4-4-|-5-5-5-5-5-5-5-5-|-5-5-5-5-5-5-5-5-|

Gb|-----------------|-----------------|-----------------|-----------------|
Db|-----------------|-----------------|-----------------|-----------------|
Ab|-----------------|-----------------|-----------------|-----------------|
Eb|-0-0-0-0-0-0-0-0-|-4-4-4-4-4-4-4-4-|-5-5-5-5-5-5-5-5-|-5-5-5-5-5-5-7-7-|

Gb|-----------------|-----------------|-----------------|-----------------|
Db|-----------------|-----------------|-----------------|-----------------|
Ab|-4-4-4-4-4-4-4-4-|-----------------|-----------------|-----------------|
Eb|-----------------|-7-7-7-7-7-7-7-7-|-5-5-5-5-5-5-5-5-|-5-5-5-5-5-5-5-5-|

[Pre chorus]
    1 + 2 + 3 + 4 +   1 + 2 + 3 + 4 +
Gb|-----------------|-----------------|
Db|-----------------|-------6-4-------|
Ab|-2---2-----2---4-|-----------4---4-| x2
Eb|-----------------|---4-2-------4---|
                                                                             
Gb|-----------------|-----------------|-----------------|------------------|
Db|-----------------|-----------------|-----------------|------------------|
Ab|-----------------|-----------------|-----------------|-5-5-5-5-5-5-5\-2-|
Eb|-2-2-2-2-2-2-2-2-|-4-4-4-4-4-4-4-4-|-5-5-5-5-5-5-5-5-|------------------|

    1 + 2 + 3 + 4 +
Gb|-----------------|------------|
Db|-----------------|------------|
Ab|-------0-2-0-7-0-|-2----------|
Eb|---0-2-----------|------------|

[Chorus]
Gb|-----------------|-----------------|-----------------|-----------------|
Db|-----------------|-----------------|-----------------|-----------------|
Ab|-0-0-0-0-0-0-0-0-|-0-0-0-0-0-0-0-0-|-7-7-7-7-7-7-7-7-|-7-7-7-7-7-7-7-7-|
Eb|-----------------|-----------------|-----------------|-----------------|

Gb|-----------------|-----------------|-----------------|-----------------|
Db|-----------------|-----------------|-----------------|-----------------|
Ab|-----------------|-----------------|-----------------|-----------------|
Eb|-7-7-7-7-7-7-7-7-|-8-8-8-8-8-8-8-8-|-9-9-9-9-9-9-9-9-|-9-9-9-9-7-7-7-7-|

Gb|-----------------|-----------------|-----------------|-----------------|
Db|-----------------|-----------------|-----------------|-----------------|
Ab|-0-0-0-0-0-0-0-0-|-0-0-0-0-0-0-0-0-|-7-7-7-7-7-7-7-7-|-7-7-7-7-7-7-7-7-|
Eb|-----------------|-----------------|-----------------|-----------------|

Gb|-----------------|-----------------|-----------------|-----------------|
Db|-----------------|-----------------|-----------------|-----------------|
Ab|-----------------|-----------------|-----------------|---------7-7-7-7-|
Eb|-7-7-7-7-7-7-7-7-|-8-8-8-8-8-8-8-8-|-9-9-9-9-9-9-9-9-|-7-7-7-7---------|

                      1 + 2 + 3 + 4 +                     1 + 2 + 3 + 4 +
Gb|-----------------|-----------------|-----------------|-----------------|
Db|-----------------|---4-2-----------|-----------------|-----------------|
Ab|-0-0-0-0-0-7-0-2-|-------2-0-------|-----------------|-5-----5-----7---|
Eb|-----------------|-----------0-2-0-|-0-0-0-0-0-0-0-0-|-----7-----7---7-|

[Pre verse]
Gb|-----------------|-----------------|-----------------|-----------------|
Db|-----------------|-----------------|-----------------|-----------------|
Ab|-----------------|-----------------|-----------------|-----------------|
Eb|-5-5-5-5-5-5-5-5-|-7-7-7-7-7-7-7-7-|-5-5-5-5-5-5-5-5-|-5-5-5-5-5-5-5-5-|

                                        1 + 2 + 3 + 4 +
Gb|-----------------|-----------------|-----------------|-----------------|
Db|-----------------|-----------------|-----------------|-----------------|
Ab|-----------------|-----------------|-----------------|-----------------|
Eb|-5-5-5-5-5-5-5-5-|-7-7-7-7-7-7-7-7-|-5-----0-----5---|------------/12\-|

[2nd verse]
Gb|-----------------|-----------------|-----------------|-----------------|
Db|-----------------|-----------------|-----------------|-----------------|
Ab|-----------------|-----------------|-----------------|-----------------| x4
Eb|-0-0-0-0-0-0-0-0-|-4-4-4-4-4-4-4-4-|-5-5-5-5-5-5-5-5-|-5-5-5-5-5-5-5-5-|

Gb|-----------------|-----------------|-----------------|-----------------|
Db|-----------------|-----------------|-----------------|-----------------|
Ab|-----------------|-----------------|-----------------|-----------------|
Eb|-0-0-0-0-0-0-0-0-|-4-4-4-4-4-4-4-4-|-5-5-5-5-5-5-5-5-|-5-5-5-5-5-5-7-7-|

Gb|-----------------|-----------------|-----------------|-----------------|
Db|-----------------|-----------------|-----------------|-----------------|
Ab|-4-4-4-4-4-4-4-4-|-----------------|-----------------|-----------------|
Eb|-----------------|-7-7-7-7-7-7-7-7-|-5-5-5-5-5-5-5-5-|-5-5-5-5-5-5-5-5-|

[2nd pre chorus]
    1 + 2 + 3 + 4 +   1 + 2 + 3 + 4 +   1 + 2 + 3 + 4 +   1 + 2 + 3 + 4 +
Gb|-----------------|-----------------|-----------------|-----------------|
Db|-----------------|-------6-4-------|-----------------|-------6-4-------|
Ab|-2---2-----2---4-|-----------4-----|-2---2-----2---4-|-----------4-----| 
Eb|-----------------|---4-2-------4~--|---------0-------|---4-2-------4~--|

Gb|-----------------|-----------------|-----------------|------------------|
Db|-----------------|-----------------|-----------------|------------------|
Ab|-----------------|-----------------|-----------------|-5-5-5-5-5-5-5\-2-|
Eb|-2-2-2-2-2-2-2-2-|-4-4-4-4-4-4-4-4-|-5-5-5-5-5-5-5-5-|------------------|

    1 + 2 + 3 + 4 +
Gb|-----------------|-------------|
Db|-----------------|-------------|
Ab|-------0-2-0-7-0-|-2-----------|
Eb|---0-2-----------|-------------|

[2nd chorus]
Gb|-----------------|-----------------|-----------------|-----------------|
Db|-----------------|-----------------|-----------------|-----------------|
Ab|-0-0-0-0-0-0-0-0-|-0-0-0-0-0-0-0-0-|-7-7-7-7-7-7-7-7-|-7-7-7-7-7-7-7-7-|
Eb|-----------------|-----------------|-----------------|-----------------|

Gb|-----------------|-----------------|-----------------|-----------------|
Db|-----------------|-----------------|-----------------|-----------------|
Ab|-----------------|-----------------|-----------------|-----------------|
Eb|-7-7-7-7-7-7-7-7-|-8-8-8-8-8-8-8-8-|-9-9-9-9-9-9-9-9-|-9-9-9-9-7-7-7-7-|

Gb|-----------------|-----------------|-----------------|-----------------|
Db|-----------------|-----------------|-----------------|-----------------|
Ab|-0-0-0-0-0-0-0-0-|-0-0-0-0-0-0-0-0-|-7-7-7-7-7-7-7-7-|-7-7-7-7-7-7-7-7-|
Eb|-----------------|-----------------|-----------------|-----------------|

Gb|-----------------|-----------------|-----------------|-----------------|
Db|-----------------|-----------------|-----------------|-----------------|
Ab|-----------------|-----------------|-----------------|---------7-7-7-7-|
Eb|-7-7-7-7-7-7-7-7-|-8-8-8-8-8-8-8-8-|-9-9-9-9-9-9-9-9-|-7-7-7-7---------|

                      1 + 2 + 3 + 4 +
Gb|-----------------|-----------------|----------------------------------|
Db|---------------9-|---4-2-----------|----------------------------------|
Ab|-0-0-0-0-0-7-0---|-------2-0-------|-----------------/7-7-7-7-7-7-7-7-|
Eb|-----------------|-----------0-2-0-|-0-0-0-0-0-0-0-0------------------|

[Bridge]
Gb|-----------------|-----------------|-----------------|-----------------|
Db|-----------------|-----------------|-----------------|-----------------|
Ab|-5-5-5-5-5-5-5-5-|-5-5-5-5-5-5-5-5-|-7-7-7-7-7-7-7-7-|-7-7-7-7-7-7-7-7-|
Eb|-----------------|-----------------|-----------------|-----------------|

Gb|-----------------|-----------------|-----------------|-----------------|
Db|-----------------|-----------------|-----------------|-----------------|
Ab|-5-5-5-5-5-5-5-5-|-5-5-5-5-5-5-5-5-|-4-4-4-4-4-4-4-4-|-4-4-4-4-4-4-4-4-|
Eb|-----------------|-----------------|-----------------|-----------------|

Gb|-----------------|-----------------|-----------------|-----------------|
Db|-----------------|-----------------|-----------------|-----------------|
Ab|-3-3-3-3-3-3-3-3-|-3-3-3-3-3-3-3-3-|-5-5-5-5-5-5-5-5-|-5-5-5-5-5-5-5-5-|
Eb|-----------------|-----------------|-----------------|-----------------|

                                         1 + 2 + 3 + 4 +
Gb|-----------------|------------------|-----------------|-----------------|
Db|-----------------|------------------|-----------------|-----9-7-------7-|
Ab|-----------------|------------------|-----------------|---9-----9-7-9---|
Eb|-5-5-5-5-5-5-5-5-|-5-5-5-5-5-5-5-/7-|---7-7-7-7-7-7-7-|-7---------------|

Gb|-----------------|-----------------|-----------------|-----------------|
Db|-----------------|-----------------|-----------------|-----------------|
Ab|-----------------|-----------------|-5-5-5-5-5-5-5-5-|-5-5-5-5-5-5-5---|
Eb|-8-8-8-8-8-8-8-8-|-8-8-8-8-8-8-8-8-|-----------------|---------------5-|

                                        1 + 2 + 3 + 4 +
Gb|-----------------|-----------------|-----------------|-----------------|
Db|-----------------|-----------------|-----------------|-----9-7-------7-|
Ab|-----------------|-----------------|-----------------|---9-----9-7-9---|
Eb|-5-5-5-5-5-5-5-5-|-5-5-5-5-5-5-5-7-|---7-7-7-7-7-7-7-|-7---------------|

Gb|----------------------|-------------|
Db|-10--------------10---|-------------|
Ab|----10-7------10----7-|-5\----------|
Eb|---------10-8---------|-------------|

[3rd chorus]
Gb|-----------------|-----------------|-----------------|-----------------|
Db|-----------------|-----------------|-----------------|-----------------|
Ab|-0-0-0-0-0-0-0-0-|-0-0-0-0-0-0-0-0-|-7-7-7-7-7-7-7-7-|-7-7-7-7-7-7-7-7-|
Eb|-----------------|-----------------|-----------------|-----------------|

Gb|-----------------|-----------------|-----------------|-----------------|
Db|-----------------|-----------------|-----------------|-----------------|
Ab|-----------------|-----------------|-----------------|-----------------|
Eb|-7-7-7-7-7-7-7-7-|-8-8-8-8-8-8-8-8-|-9-9-9-9-9-9-9-9-|-9-9-9-9-7-7-7-7-|

Gb|-----------------|-----------------|-----------------|-----------------|
Db|-----------------|-----------------|-----------------|-----------------|
Ab|-0-0-0-0-0-0-0-0-|-0-0-0-0-0-0-0-0-|-7-7-7-7-7-7-7-7-|-7-7-7-7-7-7-7-7-|
Eb|-----------------|-----------------|-----------------|-----------------|

Gb|-----------------|-----------------|-----------------|-----------------|
Db|-----------------|-----------------|-----------------|-----------------|
Ab|-----------------|-----------------|-----------------|---------7-7-7-7-|
Eb|-7-7-7-7-7-7-7-7-|-8-8-8-8-8-8-8-8-|-9-9-9-9-9-9-9-9-|-7-7-7-7---------|

                      1 + 2 + 3 + 4 +
Gb|-------------2-4-|-----------------|
Db|-----------2-----|---4-2-----------|
Ab|-0-0-0-0-0-------|-------2-0-------|
Eb|-----------------|-----------0-2-0-|

[End]
Gb|-----------------|-----------------|-----------------|-----------------|
Db|-----------------|-----------------|-----------------|-----------------|
Ab|-----------------|-----------------|-----------------|-----------------| x2
Eb|-0-0-0-0-0-0-0-0-|-0-0-0-0-0-0-0-0-|-7-7-7-7-7-7-7-7-|-9-9-9-9-9-9-9-9-|

    1 + 2 + 3 + 4 +
Gb|-----------------|-----------------|-------------|
Db|-----------------|-----------------|-------------|
Ab|-----------------|-----------------|-------------|
Eb|-5-5---0-0---5-4-|-0-5-0-5-5-5-7-7-|-0~----------|


************************************

| ~ Vibrato
| / Slide up
| \ Slide down

************************************

            
            
Suggest correction
Creating personal tab
Creating personal tab
You can edit any tab online and save it as your Personal.

You can edit, replace or remove any tab part or add personal notes – all changes will be seen only by you.

Personal tabs can be accessed anytime from any device, even offline.
Learn more »
Give kudos to tab author, rate the tab!
1 2 3 4 5
comments
print report bad tab
guest
You may want to rate the tab now too:
select rating
Wanna post a correction for this tab? Suggest correction