Oops, an error
Loading. Please wait.

Blazblue - Lust Sin tab

18,539 views 3 this week
4 commentsread comments
1 2 3 4 5
x 5
add to favorites
×
Save as Personal and add changes to this tab that will be seen only by you. Learn more ›
×
You can save this tab as Personal to edit and correct it or add notes. All changes will be seen only by you. Learn more »
launch autoscroll
font size
0
reset
how to read this tab
guitar tuner
edit
Autoscroll
slow
fast
+/-
esc
set tempo
stop
Author
            ________________________________________________
           /                                                \
          /     Daisuke Ishiwatari - Lust SIN (BlazBlue)     \
         /                                                    \
        /                  Tabbed By: Jun J.                   \
       /              a.k.a. Redoubt9000 (YouTube)              \
      /                       Night (UG)                         \
     /                   hotlava900@hotmail.com                   \
    /______________________________________________________________\
            Feel Free to Rate, as well as visit on YouTube
                          Updated: 6/06/2009


Tuning: Drop D

| /  slide
| h  hammer-on
| p  pull-off
| v  vibrato
|(#) *just a little change up, something you can decide to play instead*

 Intro
1|----------------------------------8------10---8--------------------8-------|
2|-----10-----8----10-----------------10------------8-10---8----8------------|
3|---7------7-----7-----10-9---10----------------------------10---------9-7--|
4|-7------7-----7-----7------7----7------7----7---7------7---------7---------|
5|---------------------------------------------------------------------------|
6|---------------------------------------------------------------------------|

1|--------------------------------------------------------|
2|----------------------------1~-3------------------------|
3|----------------------------0~-2------------------------|
4|---------------0----0---3-0-------3--0-----0---5--3-----|
5|-/----5---7----0----0---3-0-------3--0-----0---5--3-----|
6|-/----3---5---------------------------------------------|
                  . .   .                . .   .
Verse I
 Part I
1|---------------------------------------------------------------------|
2|-------------------------------------6-8p6---------------------------|
3|-7-9-10--10-9-7-9-7---6--------6-7-9-------9-9h10p9-7----------------|
4|------------------------7--7-8---------------------------------------|
5|---------------------------------------------------------------------|
6|---------------------------------------------------------------------|

1|-------------------------------------|
2|-------------------------------8-6---|
3|-----------7-----------9---(9)-----9-|
4|-7-7h8p7/5---7-7h8p7/5---7-----------|
5|-------------------------------------|
6|-------------------------------------|

1|---------------------------------------------------------------------|
2|-6--6---------------8-6---6---8-11-10~--10-8-------------------------|
3|------9-7-9-7-6---7-----9---7----------------10-9--------------------|
4|----------------7----------------------------------------------------|
5|---------------------------------------------------------------------|
6|---------------------------------------------------------------------|

1|-------------------------------------|
2|-------------------------------6-8---|
3|-----------7-----------9-7----9------|
4|-7-7h8p7/5---7-7h8p7/5---------------|
5|-------------------------------------|
6|-------------------------------------|

 Part II
1|-----------12-13~----------------------------------------------------|
2|-10--10-10--------11-10-8----8-----13-11-10-11~-10p8h10v-------------|
3|--------------------------10-----------------------------------------|
4|-------------------------------10------------------------------------|
5|---------------------------------------------------------------------|
6|---------------------------------------------------------------------|

1|---------------------------------|
2|-/13--------/13v---13p11p10-10v--|
3|-----9----9----------------------|
4|-------12------------------------|
5|---------------------------------|
6|---------------------------------|

1|-----------12-13~----------------------------------------------------|
2|-10--10-10--------11-10-8----8-----13-11-10-11~-10p8h10v-------------|
3|--------------------------10-----------------------------------------|
4|-------------------------------10------------------------------------|
5|---------------------------------------------------------------------|
6|---------------------------------------------------------------------|

1|---------------------------------------------------------------------|
2|------------------(10)--------------------8-10-11-10-----------------|
3|-/10~--10p9p7h9v--/14--7~-----7-9-10-9-10----------------------------|
4|---------------------------------------------------------------------|
5|---------------------------------------------------------------------|
6|---------------------------------------------------------------------|

                            ~~~NOTICE~~~

The Tab Moderators have forced these BlazBlue tabs under the "Misc Computer Games"
actually removing it FROM the already listed "Daisuke Ishiwatari" Artist/Band Listing, and
it under this tasteless section. Make your voice heard by posting in this thread and 
get these tabs back to where they belong!
http://www.ultimate-guitar.com/forum/showthread.php?t=1322860


 Part III
1|--------------10-----------10-12-13-10~---15-13-12-13v---------------|
2|-(10)-10-8-------10-----10-------------------------------------------|
3|-----------10--------------------------------------------------------|
4|---------------------------------------------------------------------|
5|---------------------------------------------------------------------|
6|---------------------------------------------------------------------|

1|---------------------------------------------------------------------|
2|-11--11-13-15-13----------11-10-8-10v--------------------------------|
3|-----------------10~---10----------------7--9------------------------|
4|---------------------------------------------------------------------|
5|---------------------------------------------------------------------|
6|---------------------------------------------------------------------|

1|------------10-----------10-12-13-10---15-13-12-13v------------------|
2|-10-10-8-------10-----10---------------------------------------------|
3|---------10----------------------------------------------------------|
4|---------------------------------------------------------------------|
5|---------------------------------------------------------------------|
6|---------------------------------------------------------------------|

1|-----------------------------------------------------6-9-10v---------|
2|-11--11-13-15-13--------11-10-8--------------------8-----------------|
3|-----------------10--10---------9v--------7-9-10-7-------------------|
4|---------------------------------------------------------------------|
5|---------------------------------------------------------------------|
6|---------------------------------------------------------------------|

:Intro

Verse II
 Part I
1|---------------------------------------------------------------------|
2|-------------------------------------6-8p6---------------------------|
3|-7-9-10--10-9-7-9-7v--6--------6-7-9-------9-9h10p9-7----------------|
4|------------------------7--7-8---------------------------------------|
5|---------------------------------------------------------------------|
6|---------------------------------------------------------------------|

1|-------------------------------------|
2|-------------------------------8-6---|
3|-----------7-----------9---(9)-----9-|
4|-7-7h8p7/5---7-7h8p7/5---7-----------|
5|-------------------------------------|
6|-------------------------------------|

1|---------------------------------------------------------------------|
2|-6--6---------------8-6---6---8-11-10~--10-8-------------------------|
3|------9-7-9-7-6---7-----9---7----------------10-9--------------------|
4|----------------7----------------------------------------------------|
5|---------------------------------------------------------------------|
6|---------------------------------------------------------------------|

1|-------------------------------------|
2|-------------------------------6-8---|
3|-----------7-----------9-7----9------|
4|-7-7h8p7/5---7-7h8p7/5---------------|
5|-------------------------------------|
6|-------------------------------------|

 Part II
1|-----------12-13~----------------------------------------------------|
2|-10--10-10--------11-10-8----8-----13-11-10-11~-10p8h10v-------------|
3|--------------------------10-----------------------------------------|
4|-------------------------------10------------------------------------|
5|---------------------------------------------------------------------|
6|---------------------------------------------------------------------|

1|---------------------------------|
2|-/13--------/13v---13p11p10-10v--|
3|-----9----9----------------------|
4|-------12------------------------|
5|---------------------------------|
6|---------------------------------|

1|-----------12-13~----------------------------------------------------|
2|-10--10-10--------11-10-8----8-----13-11-10-11~-10p8h10v-------------|
3|--------------------------10-----------------------------------------|
4|-------------------------------10------------------------------------|
5|---------------------------------------------------------------------|
6|---------------------------------------------------------------------|

1|---------------------------------------------------------------------|
2|------------------(10)--------------------8-10-11-10-----------------|
3|-/10~--10p9p7h9v--/14--7~-----7-9-10-9-10----------------------------|
4|---------------------------------------------------------------------|
5|---------------------------------------------------------------------|
6|---------------------------------------------------------------------|

 Part III
1|--------------10-----------10-12-13-10~---15-13-12-13v---------------|
2|-(10)-10-8-------10-----10-------------------------------------------|
3|-----------10--------------------------------------------------------|
4|---------------------------------------------------------------------|
5|---------------------------------------------------------------------|
6|---------------------------------------------------------------------|

1|---------------------------------------------------------------------|
2|-11--11-13-15-13----------11-10-8-10v--------------------------------|
3|-----------------10~---10----------------7--9------------------------|
4|---------------------------------------------------------------------|
5|---------------------------------------------------------------------|
6|---------------------------------------------------------------------|

1|------------10-----------10-12-13-10---15-13-12-13v------------------|
2|-10-10-8-------10-----10---------------------------------------------|
3|---------10----------------------------------------------------------|
4|---------------------------------------------------------------------|
5|---------------------------------------------------------------------|
6|---------------------------------------------------------------------|

1|-----------------------------------------------------6-9-10v---------|
2|-11--11-13-15-13--------11-10-8--------------------8-----------------|
3|-----------------10--10---------9v--------7-9-10-7-------------------|
4|---------------------------------------------------------------------|
5|---------------------------------------------------------------------|
6|---------------------------------------------------------------------|

 Part IV
1|---------------------------|
2|---------------------------|
3|----------------9-10-9-10--|
4|----10-12-10-12------------|
5|-12------------------------|
6|---------------------------|

1|---------------------------------------------------|
2|-10----13-11-10-------10-11----13------------------|
3|----12----------12-10-------10-------9-10----------|
4|----------------------------------12------10-------|
5|---------------------------------------------------|
6|---------------------------------------------------|

1|---------------------------------------------------|
2|-10----11-10---------10-11---13--------------------|
3|----12-------12-10-9-------9-------9-10-9----------|
4|--------------------------------12-----------------|
5|---------------------------------------------------|
6|---------------------------------------------------|

1|---------------------------------------------------|
2|------------11-10---------------13-11-10-----------|
3|-10-9-10-12-------12-10-9----------------10--------|
4|--------------------------11-----------------------|
5|-----------------------------12--------------------|
6|---------------------------------------------------|

1|------------------------------(9)-10-(15-13-12)----|
2|---------------------10----10-14------10-----------|
3|----9-10-12----10-12---------------------12-10-----|
4|------------10----------12-------------------------|
5|-12------------------------------------------------|
6|---------------------------------------------------|
*
*
*
*
*
1|-----------------------------------------------------|
2|---10----13-11-10-------10-11----13------------------|
3|------12----------12-10-------10-------9-10----------|
4|-12---------------------------------12------10-------|
5|-----------------------------------------------------|
6|-----------------------------------------------------|

1|---------------------------------------------------|
2|-10----11-10---------10-11---13--------------------|
3|----12-------12-10-9-------9-------9-10-9v---------|
4|--------------------------------12-----------------|
5|---------------------------------------------------|
6|---------------------------------------------------|

1|---------------------------------------------------|
2|------------11-10---------------13-11-10-----------|
3|-10-9-10-12-------12-10-9----------------10--------|
4|--------------------------11-----------------------|
5|-----------------------------12--------------------|
6|---------------------------------------------------|

1|---------------------------------10-(15-13-12)-----|
2|---------------------10----10-14-----10------------|
3|----9-10-12----10-12--------------------12-10------|
4|------------10----------12-------------------------|
5|-12------------------------------------------------|
6|---------------------------------------------------|

Enjoy! Also look forward to more Tabs, as I love this OST ^_^
And I may decide to put up another version of this tab because a majority of it as
you saw with the (#) could've been played a bit differently, but I tried to hold
myself back from adding too many different ones.
Check me out on YouTube (Username At Top) for Covers on these songs in the near future!

            
            
Suggest correction
Creating personal tab
Creating personal tab
You can edit any tab online and save it as your Personal.

You can edit, replace or remove any tab part or add personal notes – all changes will be seen only by you.

Personal tabs can be accessed anytime from any device, even offline.
Learn more »
comments
print report bad tab
4 comments total. Showing first comments.
0 reply
Seravee 10 Jul 13, 2009 12:27 PM

Great tab!!
Good job :)

0 reply
XxXAcidXxX 10 Mar 15, 2010 05:28 PM

hey man i think this is played in d standard. And u should try to get under heaven destruction and blood pain :)

0 reply
Night 120 Jun 03, 2010 11:15 AM

mmm maybe, but I'm pretty sure it's E standard no? I did a cover of the song in D standard and you can hear the difference between it and the original (apart from my sloppy playing...)

Here's the cover as reference for you to check out
http://www.youtube.com/watch?v=fi2gWAZuMG4

guest
You may want to rate the tab now too:
select rating
Wanna post a correction for this tab? Suggest correction