Oops, an error
Loading. Please wait.

Bully - Walking Theme bass

version 1
version 1

Whole song

Interactive

25,764 views 60 this week
1 commentread comment
1 2 3 4 5
x 9
add to favorites
×
Save as Personal and add changes to this tab that will be seen only by you. Learn more ›
×
You can save this tab as Personal to edit and correct it or add notes. All changes will be seen only by you. Learn more »
launch autoscroll
font size
0
reset
guitar tuner
edit
Autoscroll
slow
fast
+/-
esc
set tempo
stop
Author
Difficulty
Bully / Canis Canem Edit - Walking Theme
Artist: Shawn Lee

This is the default walking around music from Bully, easy to play to but the bass is awesome.


First part:
g|-----------------------------|
d|-----------------------------|
a|-7-7-7-7-3-3-5-5-------------| 
e|--7-7-7-7-3-3-5-5------------|

g|-----------------------------|
d|-----------------------------|
a|-7-7-7-7-6-5-4-3-3-3-3-4-5-6-| 
e|--7-7-7-7-------3-3-3-3------|

Second Part:
g|--------------------------------|
d|--------------------------------|
a|7-7-7-7-7-7-7-7-3-3-3-3-3-3-5-5-| 
e|--------------------------------|

Thrird Part:
g|---------14-12----------17-16-14-12-14-12-|
d|------14-------14-------------------------|
a|------------------15-15-------------------|
e|12-12-------------------------------------|

g|---------14-12----------17-------19----|
d|------14-------14----------------------|
a|------------------15-15----17-17----17-|
e|12-12----------------------------------|


Fourth Part:
g|---------8-8-8-8---------------|
d|-7-7-7-7---------7-7-7-7-9-9-9-|
a|--------6-6-6-6----------------|
e|5-5-5-5---------5-5-5-5-7-7-7--|

            
            
Suggest correction
Creating personal tab
Creating personal tab
You can edit any tab online and save it as your Personal.

You can edit, replace or remove any tab part or add personal notes – all changes will be seen only by you.

Personal tabs can be accessed anytime from any device, even offline.
Learn more »
comments
print report bad tab
1 comment total.
0 reply
sag11 10 Jan 07, 2013 03:16 AM

The Third Part Sound Awesome Nice Work Dude :)

guest
You may want to rate the tab now too:
select rating
Wanna post a correction for this tab? Suggest correction