Oops, an error
Loading. Please wait.

Castlevania 3 - Aquarius Acoustic tab

version 2
version 2

Whole song

Interactive

37 views 1 this week
no commentswrite comment
1 2 3 4 5
2 more votes to show rating
add to favorites
×
Save as Personal and add changes to this tab that will be seen only by you. Learn more ›
×
You can save this tab as Personal to edit and correct it or add notes. All changes will be seen only by you. Learn more »
launch autoscroll
font size
0
reset
how to read this tab
guitar tuner
edit
Autoscroll
slow
fast
+/-
esc
set tempo
stop
Tabbed by: Joshua Garcia (joshuag523@aol.com)

Tabs for the song: Castlevania 3 - Aquarius by Misc Computer Games
Please rate and let me know if you have any corrections. Thank you.


Acoustic version as played here: https://www.youtube.com/watch?v=A2Ifjyv1jIs


Tuning: Drop D (D A D G B E)


[Intro]
E||-------------------------------------------------0--|
B||--1p0--------------------------------0---------3----|
G||--x------0---------------2/4---5---5----------------|
D||--2-----------0h2------------------5------5---------|
A||--0--------------------------------x----------------|
D||-----------------------------------5----------------|


E||---------------------------------------|
B||------0---1p0--------------------------|
G||--0-------x------2----2p0---------1h2--|
D||----------3------------------3---------|
A||----------x----------------------------|
D||----------0----------------------------|


E||---------------------------------|
B||-------------0-------------------|
G||-----------2----2------2------1--|
D||---------2---------2----------2--|
A||-------2----------------------2--|
D||--2---------------------------2--|



[Riff 1]
     T   T   T   T    T    T    T   T       T   T   T   T    T    T    T   T
E||--5p0-7p0-8p0-10p0-12p0-10p0-8p0-7p0--|--5p0-7p0-8p0-10p0-12p0-10p0-8p0-7p0--|
B||--------------------------------------|--------------------------------------|
G||--------------------------------------|--------------------------------------|
D||--------------------------------------|--------------------------------------|
A||--------------------------------------|--------------------------------------|
D||--7-----------------------------------|--5-----------------------------------|


     T   T   T   T    T    T    T   T       T   T   T   T    T    T    T   T
E||--5p0-7p0-8p0-10p0-12p0-10p0-8p0-7p0--|--5p0-7p0-8p0-10p0-12p0-10p0-8p0-7p0--|
B||--------------------------------------|--------------------------------------|
G||--------------------------------------|--------------------------------------|
D||--------------------------------------|--------------------------------------|
A||--------------------------------------|--------------------------------------|
D||--4-----------------------------------|--3----------------5---------6--------|



[Riff 2]
E||---------------------------------------0~-------------|
B||--1p0---------------------0----0-----3-------------0--|
G||-------0---------------0-----5------------------5-----|
D||---------0--0h2~------------------5-------------------|
A||--0---------0----0----0-------------------------------|
D||-----------------------------5------------5----5------|


E||----------------------------0-------------------------|
B||--1p0---------------------------3--3---------------0--|
G||-------2----2p0----------2---------2----------1-1-----|
D||---------3-------3----3------------3-----0h2----2-----|
A||------------------------------------------------------|
D||--0---------0------0--------3---------0--0h2------/6--|


E||---------------------------------------0~-------------|
B||--1p0---------------------0----0-----3-------------0--|
G||-------0---------------0-----5------------------5-----|
D||---------0--0h2~------------------5-------------------|
A||--0---------0----0----0-------------------------------|
D||-----------------------------5------------5----5------|


E||----------------------------0-------------------------|
B||--1p0---------------------------3--3---------------0--|
G||-------2----2p0----------2---------2----------1-1-----|
D||---------3-------3----3------------3-----0h2----2-----|
A||------------------------------------------------------|
D||--0---------0------0--------3---------0--0h2----------|



[Riff 3]
E||-------------------------------------------------0--|
B||--1p0--1--0--1---0-----1p0--1p0--1--0--1---0--1-----|
G||--------------------2--2----1----1--1--1---1--1-----|
D||----------------------------------------------------|
A||----------------------------------------------------|
D||--1----1--1--1---1----------0----0--0--0---0--------|


E||--0------------0------------0--------0--------------|
B||--3------3p1h3-3------1h3p1-3---3-------3---1-1--0--|
G||--0----0-------2----2-------2-----2-----4---2-2--1--|
D||----------------------------------------------------| [x2]
A||--3-------------------------1-----------------------|
D||---------------3------------------------2--------2--|



[Riff 1]
     T   T   T   T    T    T    T   T       T   T   T   T    T    T    T   T
E||--5p0-7p0-8p0-10p0-12p0-10p0-8p0-7p0--|--5p0-7p0-8p0-10p0-12p0-10p0-8p0-7p0--|
B||--------------------------------------|--------------------------------------|
G||--------------------------------------|--------------------------------------|
D||--------------------------------------|--------------------------------------|
A||--------------------------------------|--------------------------------------|
D||--7-----------------------------------|--5-----------------------------------|


     T   T   T   T    T    T    T   T       T   T   T   T    T    T    T   T
E||--5p0-7p0-8p0-10p0-12p0-10p0-8p0-7p0--|--5p0-7p0-8p0-10p0-12p0-10p0-8p0-7p0--|
B||--------------------------------------|--------------------------------------|
G||--------------------------------------|--------------------------------------|
D||--------------------------------------|--------------------------------------|
A||--------------------------------------|--------------------------------------|
D||--4-----------------------------------|--3----------------2------------------|


     T   T   T   T    T    T    T   T       T   T   T   T    T    T    T   T
E||--5p0-7p0-8p0-10p0-12p0-10p0-8p0-7p0--|--5p0-7p0-8p0-10p0-12p0-10p0-8p0-7p0--|
B||--------------------------------------|--------------------------------------|
G||--------------------------------------|--------------------------------------|
D||--7-----------------------------------|--5-----------------------------------|
A||--------------------------------------|--------------------------------------|
D||--7-----------------------------------|--5-----------------------------------|


     T   T   T   T    T    T    T   T       T   T   T   T    T    T    T   T
E||--5p0-7p0-8p0-10p0-12p0-10p0-8p0-7p0--|--5p0-7p0-8p0-10p0-12p0-10p0-8p0-7p0--|
B||--------------------------------------|--------------------------------------|
G||--------------------------------------|--------------------------------------|
D||--4-----------------------------------|--3----------------5---------6--------|
A||--------------------------------------|--------------------------------------|
D||--4-----------------------------------|--3----------------5---------6--------|



[Riff 4]
E||--------------------------------------------------------|
B||-------0---1--4----1---0---1--0-------------------------|
G||-----2-----------------------------1------2-------2--0--|
D||-----------------------------------------------2--------|
A||--0------0------0------0--------------------0-----3-----|
D||------------------------------2------2------------------|


E||--------------------------------------------------------|
B||----------------1----0-----------------------------0----|
G||-------0------2-------------2-1----2----4--------1------|
D||--3---------------------------2----4----6--------2------|
A||--------------------------------------------------------|
D||--0------0------1------1------2----4----6-----2------2--|


E||--0-----------------------------------------------------|
B||-------0---1--4----1---0---1--0-------------------------|
G||-----2-----------------2---2-------1------2-------2--0--|
D||------------------------------------------2----2--------|
A||--0--------0--0----0----------------------0-------------|
D||------------------------------2----2--------------------|


E||-----------------------------------------------------'--|
B||----------------1----0-0----0------------------0-----'--|
G||-------0-0----2--------2----2p1----1-----2-----1-----'--|
D||--3------3-------------------------2-----4-----2-----'--|
A||--------------------------------------------------------|
D||--0-------------1------------------2-----2-----2--------|



[Riff 2]
E||---------------------------------------0~-------------|
B||--1p0---------------------0----0-----3-------------0--|
G||-------0---------------0-----5------------------5-----|
D||---------0--0h2~------------------5-------------------|
A||--0---------0----0----0-------------------------------|
D||-----------------------------5------------5----5------|


E||----------------------------0-------------------------|
B||--1p0---------------------------3--3---------------0--|
G||-------2----2p0----------2---------2----------1-1-----|
D||---------3-------3----3------------3-----0h2----2-----|
A||------------------------------------------------------|
D||--0---------0------0--------3---------0--0h2------/6--|


E||---------------------------------------0~-------------|
B||--1p0---------------------0----0-----3-------------0--|
G||-------0---------------0-----5------------------5-----|
D||---------0--0h2~------------------5-------------------|
A||--0---------0----0----0-------------------------------|
D||-----------------------------5------------5----5------|


E||----------------------------0-------------------------|
B||--1p0---------------------------3--3---------------0--|
G||-------2----2p0----------2---------2----------1-1-----|
D||---------3-------3----3------------3-----0h2----2-----|
A||------------------------------------------------------|
D||--0---------0------0--------3---------0--0h2----------|



[Riff 3]
E||-------------------------------------------------0--|
B||--1p0--1--0--1---0-----1p0--1p0--1--0--1---0--1-----|
G||--------------------2--2----1----1--1--1---1--1-----|
D||----------------------------------------------------|
A||----------------------------------------------------|
D||--1----1--1--1---1----------0----0--0--0---0--------|


E||--0------------0------------0--------0--------------|
B||--3------3p1h3-3------1h3p1-3---3-------3---1-1--0--|
G||--0----0-------2----2-------2-----2-----4---2-2--1--|
D||----------------------------------------------------| [x2]
A||--3-------------------------1-----------------------|
D||---------------3------------------------2--------2--|



[Outro]
     T   T   T   T    T    T    T   T       T   T   T   T    T    T    T   T
E||--5p0-7p0-8p0-10p0-12p0-10p0-8p0-7p0--|--5p0-7p0-8p0-10p0-12p0-10p0-8p0-7p0--|
B||--------------------------------------|--------------------------------------|
G||--------------------------------------|--------------------------------------|
D||--------------------------------------|--------------------------------------|
A||--------------------------------------|--------------------------------------|
D||--7-----------------------------------|--5-----------------------------------|


     T   T   T   T    T    T    T   T       T   T   T   T    T    T    T   T
E||--5p0-7p0-8p0-10p0-12p0-10p0-8p0-7p0--|--5p0-7p0-8p0-10p0-12p0-10p0-8p0-7p0--|
B||--------------------------------------|--------------------------------------|
G||--------------------------------------|--------------------------------------|
D||--------------------------------------|--------------------------------------|
A||--------------------------------------|--------------------------------------|
D||--4-----------------------------------|--3----------------2------------------|


     T   T   T   T    T    T    T   T       T   T   T   T    T    T    T   T
E||--5p0-7p0-8p0-10p0-12p0-10p0-8p0-7p0--|--5p0-7p0-8p0-10p0-12p0-10p0-8p0-7p0--|
B||--------------------------------------|--------------------------------------|
G||--------------------------------------|--------------------------------------|
D||--7-----------------------------------|--5-----------------------------------|
A||--------------------------------------|--------------------------------------|
D||--7-----------------------------------|--5-----------------------------------|


     T   T   T   T    T    T    T   T       T   T   T   T    T    T    T   T
E||--5p0-7p0-8p0-10p0-12p0-10p0-8p0-7p0--|--5p0-7p0-8p0-10p0-12p0-10p0-8p0-7p0--|
B||--------------------------------------|--------------------------------------|
G||--------------------------------------|--------------------------------------|
D||--4-----------------------------------|--3----------------2------------------|
A||--------------------------------------|--------------------------------------|
D||--4-----------------------------------|--3----------------2------------------|


E||--0(')--|
B||--1(')--|
G||--2(')--|
D||--2(')--|
A||--0(')--|
D||--------|





*****************************
-Tablature Legend-

 h   hammer-on
 p   pull-off
 b   bend
 pb  pre-bend
 r   release bend
 ~   hold / vibrato
 .   palm mute
 /   slide up
 \   slide down
 *   pinch harmonic
 '   natural harmonic
 x   mute note
 T   tap

*****************************

            
            
Suggest correction
Creating personal tab
Creating personal tab
You can edit any tab online and save it as your Personal.

You can edit, replace or remove any tab part or add personal notes – all changes will be seen only by you.

Personal tabs can be accessed anytime from any device, even offline.
Learn more »
Give kudos to tab author, rate the tab!
1 2 3 4 5
comments
print report bad tab
guest
You may want to rate the tab now too:
select rating
Wanna post a correction for this tab? Suggest correction