Oops, an error
Loading. Please wait.

Chrono Trigger - Secret Of The Forest bass

version 1
version 1

Whole song

Interactive

679 views 15 this week
2 commentsread comments
1 2 3 4 5
x 3
add to favorites
×
Save as Personal and add changes to this tab that will be seen only by you. Learn more ›
×
You can save this tab as Personal to edit and correct it or add notes. All changes will be seen only by you. Learn more »
launch autoscroll
font size
0
reset
guitar tuner
edit
Autoscroll
slow
fast
+/-
esc
set tempo
stop
Chrono Trigger - Secret of the Forest

Tabbed by: XxThreeCheersxX
E-mail: phantomhiveghost@gmail.com

Tuning: Standard 

EDIT: This is one of my older tabs, and it was incomplete and there were a lot of problems with it, so I went back and fixed it.  I hope it's much better now.

Part I (play 3 times)
G|-----------------------------|
D|---------------4--3~---------|
A|-------4----------------3----|
E|-2~------2~---------------1~-|

G|-----------------------------------------------------------|
D|-----------------------4--3~-------3-----------------------|
A|----------4---------------------3--------------------------|
E|-1--2~------2--2x--2-----------------1x--1x----1----8~--\--|

Part II
G|------------------------------------3--------------|
D|-------8-------------4-----------3-----------3-----|
A|-6~-------6-4--2~-------2--1~----------1~-------1--|
E|---------------------------------------------------|

G|------------------------------------5--------------|
D|-------8-------------4-----------5-----3~----------|
A|-6~-------6-4--2~-------2--3~----------------3~----|
E|---------------------------------------------------|

Part III x 2
G|--------------------------------------------------10~----8----------------------------|
D|-------8~----10-8------------7~----5-----------8------------8--------10---------------|
A|----8-------------8-------5-----------5-----6------------------6--8------8--8-11-8----|
E|-6------------------6--3-----------------3-----------------------------------------8--|

Part IV
G|---------8--6---5--------------------|
D|-----6--------------3-------3--------|
A|-4----------------------3------------|
E|-------------------------------1~----|

Repeat as much as you want!

| /  slide up
| \  slide down
| h  hammer-on
| p  pull-off
| ~  vibrato
| +  harmonic
| x  Mute note


            
            
Suggest correction
Creating personal tab
Creating personal tab
You can edit any tab online and save it as your Personal.

You can edit, replace or remove any tab part or add personal notes – all changes will be seen only by you.

Personal tabs can be accessed anytime from any device, even offline.
Learn more »
Give kudos to tab author, rate the tab!
1 2 3 4 5
comments
print report bad tab
2 comments total.
0 reply
Micolae 10 Apr 06, 2014 10:57 PM

This certainly comes close, however I believe on your first tab there it's actually E-string fret #2 too A-string fret #4, and your D-string notes go from 4 to 3 instead of 5 to 3. Also, there's a solo part for the bass guitar in this track as well, I'll be writing that part down eventually, but other than that I think it's dead-on, so thank you!

0 reply
Zaqq 589 Aug 10, 2014 09:31 AM

Lack of accuracy. Tab incomplete. Clearly wrong.

guest
You may want to rate the tab now too:
select rating
Wanna post a correction for this tab? Suggest correction