Oops, an error
Loading. Please wait.

Contra - Jungle tab

version 1
version 1

Whole song

Interactive

16,362 views 33 this week
no commentswrite comment
1 2 3 4 5
x 3
add to favorites
×
Save as Personal and add changes to this tab that will be seen only by you. Learn more ›
×
You can save this tab as Personal to edit and correct it or add notes. All changes will be seen only by you. Learn more »
launch autoscroll
font size
0
reset
how to read this tab
guitar tuner
edit
Autoscroll
slow
fast
+/-
esc
set tempo
stop
Author
Yes, this is taken from a powertab originally by robotwithawing, 
but I have fixed some minor mistakes and formatted it for ASCII. 
This is generated from an imported MIDI file, so the notes are 100% accurate. 
The only issue possible would be notes being played on the wrong strings, etc. 
This is essentially the best way this song can be arranged for guitar.

LEGEND:
() = Ghost note


Tuning is STANDARD EADGBe


  Gtr I
|-----8--7-----|------10-12---(12)-|-----||
|-----------8--|-10----------------|-----||
|--------------|-------------------|-----||
|--------------|-------------------|-----||
|-8------------|-------------------|-----||
|--------------|-------------------|-----||
|
| Gtr II
|--------------|-------------------|-----||
|----10--8-----|-------------------|-----||
|-----------7--|--9----------------|-----||
|--------------|-------------------|-----||
|--------------|-------------------|-----||
|-8------------|-------------------|-----||


 Intro (Jungle)

|-13-11-------------------------------------------||
|-------13-11-13-11-------------------------------||
|-------------------13-12-13-12-------------------||
|-------------------------------15-13-15-------13-||
|----------------------------------------13-15----||
|-------------------------------------------------||
|
|-------------------------------------------------||
|-13-11-------------------------------------------||
|-------12-10-12-10-------------------------------||
|-------------------13-12-13-12-------------------||
|-------------------------------15-13-13-------13-||
|----------------------------------------13-15----||


 Theme A

|-------------------------|-------|
|----------------------15-|-16----|
|------------17--15-17----|-------|
|-15----(15)--------------|-------|
|-------------------------|-------|
|-------------------------|-------|
|
|-------------------------|-------|
|-------------------------|-------|
|----------------------14-|-15----|
|------------17--15-17----|-------|
|-15----(15)--------------|-------|
|-------------------------|-------|


|-------------------------|-----------|-------------------------|-------|
|----------------------15-|-----------|----------------------15-|-16----|
|------------17--15-17----|-13--------|------------17--15-17----|-------|
|-15----(15)--------------|-----------|-15----(15)--------------|-------|
|-------------------------|-----------|-------------------------|-------|
|-------------------------|-----------|-------------------------|-------|
|
|-------------------------|-----------|-------------------------|-------|
|-------------------------|-----------|-------------------------|-11----|
|----------------------14-|--8--------|----------------------14-|-------|
|------------17--15-17----|-----------|------------17--15-17----|-------|
|-15----(15)--------------|-----------|-15----(15)--------------|-------|
|-------------------------|-----------|-------------------------|-------|

Theme B

|-------------------------|-----------|---------------------------------------------|
|----------------------15-|-----------|-13--13-(13)--15-(15)--16--16---(16)----(16)-|
|------------17--15-17----|-13--------|---------------------------------------------|
|-15----(15)--------------|-----------|---------------------------------------------|
|-------------------------|-----------|---------------------------------------------|
|-------------------------|-----------|---------------------------------------------|
|
|-------------------------|-----------|---------------------------------------------|
|-------------------------|-----------|---------------------------------------------|
|----------------------14-|--8--------|-12--12-(12)--14-(14)--15--15----12--15--17--|
|------------17--15-17----|-----------|---------------------------------------------|
|-15----(15)--------------|-----------|---------------------------------------------|
|-------------------------|-----------|---------------------------------------------|


|-------------------------------------------|
|-15--15-(15)--16-(16)--18--18--16-18-(18)--|
|-------------------------------------------|
|-------------------------------------------|
|-------------------------------------------|
|-------------------------------------------|
|
|-------------------------------------------|
|-------------------------------------------|
|-14--14-(14)--15-(15)--17--17--15-17-(17)--|
|-------------------------------------------|
|-------------------------------------------|
|-------------------------------------------|


|---------------------------------------------|---------------------------18--|
|-13--13-(13)--15-(15)--16--16---(16)----(16)-|-15--15-(15)--16-(16)--18------|
|---------------------------------------------|-------------------------------|
|---------------------------------------------|-------------------------------|
|---------------------------------------------|-------------------------------|
|---------------------------------------------|-------------------------------|
|
|---------------------------------------------|-------------------------------|
|---------------------------------------------|---------------------------18--|
|-12--12-(12)--14-(14)--15--15----12--15--17--|-14--14-(14)--15-(15)--17------|
|---------------------------------------------|-------------------------------|
|---------------------------------------------|-------------------------------|
|---------------------------------------------|-------------------------------|


|-------10----------------------------------------|
|----------13-11-10-------------------------------|
|-12-10-------------12-10-12-10-------------------|
|-------------------------------12-10-12-10-------|
|-------------------------------------------13-12-|
|-------------------------------------------------|
|
|-------------10----------------------------------|
|----------------13-11-10-------------------------|
|-12-10-12-10-------------12-10-12-10-------------|
|-------------------------------------12-10-12-10-|
|-------------------------------------------------|
|-------------------------------------------------|


 Theme C

|---------------------------------|
|---------------------------------|
|---------------12--10------------|
|-10--10-12--13---------13-12-----|
|------------------------------13-|
|---------------------------------|
|
|---------------------------------|
|---------------------------------|
|---------------12--10------------|
|--------12--13---------13-12-----|
|-10--10-----------------------13-|
|---------------------------------|


|-----------------------------|---------------------------------------|
|-----------------------------|---------------------------------------|
|-----------------------------|-------------------------------10-(10)-|
|-10--------------------------|------------10-(10)-12-(12)-13---------|
|-----------------------------|-12-(12)-13----------------------------|
|-----------------------------|---------------------------------------|
|
|-----------------------------|---------------------------------------|
|-----------------------------|---------------------------------------|
|-----------------------------|---------------------------------------|
|-----------------------------|---------------------8--(8)-10-12-(12)-|
|-------------------8-10-(10)-|--8--(8)-10-12-(12)--------------------|
|--8-8-8--8-10-11-8-----------|---------------------------------------|


|-----------------------10---------------|
|---------10-11-(11)-13-----10-----------|
|-12-(12)----------------------------10--|
|------------------------------10-13-----|
|----------------------------------------|
|----------------------------------------|
|
|----------------------------------------|
|-----------------------11--10-----------|
|--8--(8)--8-10-(10)-12--------------10--|
|------------------------------10-13-----|
|----------------------------------------|
|----------------------------------------|


|----------------------------------------|
|-------------------------11-10-11-10----|
|-12-10-12----------10-12-------------10-|
|----------10-10-13----------------------|
|----------------------------------------|
|----------------------------------------|
|
|----------------------------------------|
|-------------------------11-10-11-10----|
|-12-10-12----------10-12-------------10-|
|----------10-10-13----------------------|
|----------------------------------------|
|----------------------------------------|


|----------------------------------------|
|----------------------------------------|
|-12-------------------------------------|
|----------------------------------------|
|----------------------------------------|
|----------------------------------------|
|
|-------------------------------------10-|
|-------------------------11-10-11-13----|
|-12-10-12----------10-12----------------|
|----------10-10-13----------------------|
|----------------------------------------|
|----------------------------------------|


|-------------------------------|-------------------------10------|
|-------------------------------|--------------10-(10)-11-----13--|
|-----------------------10-(10)-|-12-12-12--12--------------------|
|--------10-(10)-12--13---------|---------------------------------|
|-12--13------------------------|---------------------------------|
|-------------------------------|---------------------------------|
|
|-------------------------------|---------------------------------|
|-------------------------------|-------------------------11--10--|
|-------------------------------|--8---------8-10-(10)-12---------|
|-----------------8--10-12-(12)-|---------------------------------|
|--8--10-12-(12)----------------|---------------------------------|
|-------------------------------|---------------------------------|


 Theme D

|--------------------------------------------------|
|-11-11-11-11-(11)-11-11-11-11-11-(11)-11--10-(10)-|
|--------------------------------------------------|
|--------------------------------------------------|
|--------------------------------------------------|
|--------------------------------------------------|
|
|--------------------------------------------------|
|--------------------------------------------------|
|-12-12-12-12-(12)-12-12-12-12-12-(12)-12--10-(10)-|
|--------------------------------------------------|
|--------------------------------------------------|
|--------------------------------------------------|


|--------------------------------------|
|-8-8-8-8-(8)-8-8-8-8-8-(8)-8--10-(10)-|
|--------------------------------------|
|--------------------------------------|
|--------------------------------------|
|--------------------------------------|
|
|--------------------------------------|
|--------------------------------------|
|-8-8-8-8-(8)-8-8-8-8-8-(8)-8--10-(10)-|
|--------------------------------------|
|--------------------------------------|
|--------------------------------------|


|--------------------------------------------------|
|-11-11-11-11-(11)-11-11-11-11-11-(11)-11--10-(10)-|
|--------------------------------------------------|
|--------------------------------------------------|
|--------------------------------------------------|
|--------------------------------------------------|
|
|--------------------------------------------------|
|--------------------------------------------------|
|-12-12-12-12-(12)-12-12-12-12-12-(12)-12--10-(10)-|
|--------------------------------------------------|
|--------------------------------------------------|
|--------------------------------------------------|


|-------------------------8-10--8----------|
|-8-8-8-8-(8)----8-10-11-----------10-(10)-|
|-------------10---------------------------|
|------------------------------------------|
|------------------------------------------|
|------------------------------------------|
|
|------------------------------------------|
|----------------------8-10-11-10----------|
|-8-8-8-8-(8)--7-8-10--------------10-(10)-|
|------------------------------------------|
|------------------------------------------|
|------------------------------------------|


|--------------------------------------------------|
|-15-15-15-15-(15)-15-15-15-15-15-(15)-15--13-(13)-|
|--------------------------------------------------|
|--------------------------------------------------|
|--------------------------------------------------|
|--------------------------------------------------|
|
|--------------------------------------------------|
|-11-11-11-11-(11)-11-11-11-11-11-(11)-11--10-(10)-|
|--------------------------------------------------|
|--------------------------------------------------|
|--------------------------------------------------|
|--------------------------------------------------|


|--------------------------------------------------|
|-11-11-11-11-(11)-11-11-11-11-11-(11)-11--13-(13)-|
|--------------------------------------------------|
|--------------------------------------------------|
|--------------------------------------------------|
|--------------------------------------------------|
|
|--------------------------------------------------|
|--8--8--8--8--(8)--8--8--8--8--8--(8)--8--10-(10)-|
|--------------------------------------------------|
|--------------------------------------------------|
|--------------------------------------------------|
|--------------------------------------------------|


|--------------------------------------------------|
|-15-15-15-15-(15)-15-15-15-15-15-(15)-15--16-(16)-|
|--------------------------------------------------|
|--------------------------------------------------|
|--------------------------------------------------|
|--------------------------------------------------|
|
|--------------------------------------------------|
|-11-11-11-11-(11)-11-11-11-11-11-(11)-10--11-(11)-|
|--------------------------------------------------|
|--------------------------------------------------|
|--------------------------------------------------|
|--------------------------------------------------|



|----------------------------------------------|
|-18-18-18-18-(18)-18-18-18-18-(18)------------|
|----------------------------------------------|
|---------------------------------------10-12--|
|------------------------------------10--------|
|----------------------------------------------|
|
|----------------------------------------------|
|-13-13-13-13-(13)-13-13-13-13-(13)------------|
|------------------------------------------10--|
|------------------------------------10-13-----|
|----------------------------------------------|
|----------------------------------------------|


 Theme E

|-------------------------------------------|
|-------------------------------11-11-------|
|-12-10-12----------10-12-10-12-------10-12-|
|----------10-10-13-------------------------|
|-------------------------------------------|
|-------------------------------------------|
|
|-------------------------------------------|
|-------------------------------------------|
|-------------------------------12-12-10-12-|
|-13-12-13-------10-12-13-12-13-------------|
|----------10-10----------------------------|
|-------------------------------------------|



|---------------------------------------------------||
|-----------------------------------10-(10)-11-(11)-||
|-12-10-12----------10-(10)-12-(12)-----------------||
|----------10-10-13---------------------------------||
|---------------------------------------------------||
|---------------------------------------------------||
|
|---------------------------------------------------||
|---------------------------------------------------||
|-----------------------------------10-(10)-12-(12)-||
|-13-12-13-------10-12-(12)-13-(13)-----------------||
|----------10-10------------------------------------||
|---------------------------------------------------||

DS al coda (Back to theme A)


 Victory!

|-12-12-12-12--14-14-14-14--------------|-------10-12------(12)-||-(12)--------|
|--------------------------15-15-15-15--|-10-12-----------------||-------------|
|---------------------------------------|-----------------------||-------------|
|---------------------------------------|-----------------------||-------------|
|---------------------------------------|-----------------------||-------------|
|---------------------------------------|-----------------------||-------------|
|
|--9--9--9--9--11-11-11-11--------------|-----------------------||-------------|
|--------------------------12-12-12-12--|-------10-12------(12)-||-(12)--------|
|---------------------------------------|--9-10-----------------||-------------|
|---------------------------------------|-----------------------||-------------|
|---------------------------------------|-----------------------||-------------|
|---------------------------------------|-----------------------||-------------|


 Game Over
|-------------------------------|------8-10-12---------|----24--21--18--17----*|
|-10--10--8-10-12-10-10---8-----|----------------8--9--|-10-------------------*|
|----------------------------10-|-(10)-----------------|----------------------*|
|-------------------------------|----------------------|----------------------*|
|-------------------------------|----------------------|----------------------*|
|-------------------------------|----------------------|----------------------*|
|
|-------------------------------|------8-10-12---------|----12---9------------*|
|---------8-10-12---------------|----------------------|------------11--10----*|
|--9---9-----------9--9---------|----------------7--8--|--9-------------------*|
|------------------------12--10-|-(10)-----------------|----------------------*|
|-------------------------------|----------------------|----------------------*|
|-------------------------------|----------------------|----------------------*|



***************************************************************************************
* Generated using Power Tab Editor by Brad Larsen - http://powertab.guitarnetwork.org *
***************************************************************************************

            
            
Suggest correction
Creating personal tab
Creating personal tab
You can edit any tab online and save it as your Personal.

You can edit, replace or remove any tab part or add personal notes – all changes will be seen only by you.

Personal tabs can be accessed anytime from any device, even offline.
Learn more »
Give kudos to tab author, rate the tab!
1 2 3 4 5
comments
print report bad tab
guest
You may want to rate the tab now too:
select rating
Wanna post a correction for this tab? Suggest correction