Oops, an error
Loading. Please wait.

Cry Of Fear - Lonely solo tab

version 1
version 1

Solo

Interactive

121 views 1 this week
3 commentsread comments
1 2 3 4 5
x 4
add to favorites
×
Save as Personal and add changes to this tab that will be seen only by you. Learn more ›
×
You can save this tab as Personal to edit and correct it or add notes. All changes will be seen only by you. Learn more »
launch autoscroll
font size
0
reset
how to read this tab
guitar tuner
edit
Autoscroll
slow
fast
+/-
esc
set tempo
stop
                               Cry of Fear - Lonely (Solo Version)
                                                                                                            x2
e|--------------------------|--------------------------|--------------------------|--------------------------|
B|--------------------------|--------------------------|--------------------------|--------------------------|
G|--------2-----------2-----|--------2-----------2-----|--------2-----------2-----|--------2-----------2-----|
D|-----2-----2-----2-----2--|-----3-----3-----3-----3--|-----2-----2-----2-----2--|-----3-----3-----3-----3--|
A|--0-----------0-----------|--0-----------0-----------|--0-----------0-----------|--0-----------0-----------|
E|--------------------------|--------------------------|--------------------------|--------------------------|

                                                                                                            x2
e|--0-----------------------|--------------------------|--------------------------|--------------------------|
B|-----------3--------------|--1--------0--------------|--------------------------|--------------------------|
G|--------2-----------2-----|--------2-----------2-----|--2-----2-----------2-----|--------2-----------2-----|
D|-----2-----2-----2-----2--|-----3-----3-----3-----3--|-----2-----2-----2-----2--|-----3-----3-----3-----3--|
A|--0-----------0-----------|--0-----------0-----------|--0-----------0-----------|--0-----------0-----------|
E|--------------------------|--------------------------|--------------------------|--------------------------|


e|--0-----------------0-----|--------------------------|--------------------------|--------------------------|
B|-----------3--------------|--1--------0--------------|--------------------------|--------------------------|
G|--------2-----------2-----|--------2-----------2-----|--2-----2--0--------2-----|--------2-----------2-----|
D|-----2-----2-----2-----2--|-----3-----3-----3-----3--|-----2-----2-----2-----2--|-----3-----3-----3-----3--|
A|--0-----------0-----------|--0-----------0-----------|--0-----------0-----------|--0-----------0-----------|
E|--------------------------|--------------------------|--------------------------|--------------------------|


e|--0-----------------0-----|--------------------------|--------------------------|--------------------------|
B|-----------3--------------|--1--------0--------------|--------------------------|--------------------------|
G|--------2-----------2-----|--------2-----------2-----|--2-----2-----------2-----|--------2-----------2-----|
D|-----2-----2-----2-----2--|-----3-----3-----3-----3--|-----2-----2-----2-----2--|-----3-----3-----3-----3--|
A|--0-----------0-----------|--0-----------0-----------|--0-----------0-----------|--0-----------0-----------|
E|--------------------------|--------------------------|--------------------------|--------------------------|

                                                                                                           end
e|--------------------------|--------------------------|--------------------------|--------------------------|
B|--------------------------|--------------------------|--------------------------|--------------------------|
G|--------2-----------2-----|--------2-----------2-----|--------2-----------2-----|--------2-----------2-----|
D|-----2-----2-----2-----2--|-----3-----3-----3-----3--|-----2-----2-----2-----2--|-----3-----3-----3-----3--|
A|--0-----------0-----------|--0-----------0-----------|--0-----------0-----------|--0-----------0-----------|
E|--------------------------|--------------------------|--------------------------|--------------------------|


Original Music Author: Andreas Rönnberg
          Solo Author: Shota Zangurashvili

            
            
Suggest correction
Creating personal tab
Creating personal tab
You can edit any tab online and save it as your Personal.

You can edit, replace or remove any tab part or add personal notes – all changes will be seen only by you.

Personal tabs can be accessed anytime from any device, even offline.
Learn more »
comments
print report bad tab
3 comments total.
+1 reply
wahnsinniger13 10 Oct 20, 2017 09:46 AM

I fucking like it

+1 reply
silagadzesaba5 10 Oct 22, 2017 10:41 AM

It's too fucking good

+1 reply
silagadzesaba5 10 Oct 22, 2017 10:41 AM

It's fucking GOOOD

guest
You may want to rate the tab now too:
select rating
Wanna post a correction for this tab? Suggest correction