Oops, an error
Loading. Please wait.

Devil May Cry 3 Theme intro tab

version 2
version 2

Intro

Whole song

283 views 3 this week
no commentswrite comment
1 2 3 4 5
3 more votes to show rating
add to favorites
×
Save as Personal and add changes to this tab that will be seen only by you. Learn more ›
×
You can save this tab as Personal to edit and correct it or add notes. All changes will be seen only by you. Learn more »
launch autoscroll
font size
0
reset
how to read this tab
guitar tuner
edit
Autoscroll
slow
fast
+/-
esc
set tempo
stop
Author
Difficulty
This is the orchestral/choir intro and repeats itself in the middle of the song.
Could not find the chords anywhere so I decided to tab it myself.
Hope you guys enjoy this as much as I did making it! =D

From the game "Devil May Cry 3" Soundtrack

Devils Never Cry


                         Ebsus4     Amadd9                           Ebsus4     Amadd9
   Am         F     Fdim5      Eb         Am   Dm         Amadd9           Eb         Am
E/-5--------|-5-----7--|-5-----4--|-7-----5--|----8--10-|-8--7--5--|-5-----4--|-7-----5--|
B/-5--------|-6-----6--|-5-----5--|-5-----5--|-6--------|-10-------|-5-----5--|-5-----5--|
G/-5--------|-5-----5--|-4-----4--|-5-----5--|-7--------|-11-------|-4-----4--|-5-----5--|
D/-7--------|-7-----7--|-6-----6--|-7-----7--|-7--------|-10-------|-6-----6--|-7-----7--|
A/----------|----------|----------|----------|----------|----------|----------|----------|
E/----------|----------|----------|----------|----------|----------|----------|----------|


   Am         F          Ebsus4     Am         D          Amadd9     Ebsus4     Amadd9
E/----12----|-13-10----|-------13-|-12-8-----|----8--10-|-13-12-10-|-8-----7--|-10----8--|
B/-10----10-|-10----10-|-10-9-----|-10-------|-10-------|-10-------|-9--------|-10-------|
G/-9--------|-10-------|-9--------|-9--------|-10-------|-9--------|-9--------|-9--------|
D/-10-------|-10-------|-9--------|-10-------|-12-------|-10-------|-9--------|-10-------|
A/----------|----------|----------|----------|----------|----------|----------|----------|
E/----------|----------|----------|----------|----------|----------|----------|----------|


- FF76

            
            
Suggest correction
Creating personal tab
Creating personal tab
You can edit any tab online and save it as your Personal.

You can edit, replace or remove any tab part or add personal notes – all changes will be seen only by you.

Personal tabs can be accessed anytime from any device, even offline.
Learn more »
Give kudos to tab author, rate the tab!
1 2 3 4 5
comments
print report bad tab
guest
You may want to rate the tab now too:
select rating
Wanna post a correction for this tab? Suggest correction