Oops, an error
Loading. Please wait.

Donkey Kong Country Theme tab

version 1
version 1

Whole song

Interactive

31,644 views 117 this week
4 commentsread comments
1 2 3 4 5
x 20
add to favorites
×
Save as Personal and add changes to this tab that will be seen only by you. Learn more ›
×
You can save this tab as Personal to edit and correct it or add notes. All changes will be seen only by you. Learn more »
launch autoscroll
font size
0
reset
how to read this tab
guitar tuner
edit
Autoscroll
slow
fast
+/-
esc
set tempo
stop
Author
here's how i've transcribed,by ear,the bar bones of the donkey kong theme's main riff:
e|--------5---------------------------6----------5------------|
B|-----------------6-8-6-----------------------8---8-5--------|
G|---5--5----------------7--------7-7-------------------------|
D|------------------------------------------------------------|
A|------------------------------------------------------------|
E|------------------------------------------------------------|

e|-------8--------------8--10---------------------------------|
B|---5-5----------10-11-----------------8-10-----------8------|
G|-----------------------------------10-----------9-10--------|
D|------------------------------------------------------------|
A|------------------------------------------------------------|
E|------------------------------------------------------------|

that's the main riff,the bare bones of the song.

            
            
Suggest correction
Creating personal tab
Creating personal tab
You can edit any tab online and save it as your Personal.

You can edit, replace or remove any tab part or add personal notes – all changes will be seen only by you.

Personal tabs can be accessed anytime from any device, even offline.
Learn more »
comments
print report bad tab
4 comments total. Showing first comments.
0 reply
BoonMcNougat 97 Aug 30, 2010 02:06 AM

Pretty damn good!

0 reply
zookz45 10 Nov 18, 2013 02:40 PM

Great job, keep working on this song and you will have a complete masterpiece.

+3 reply
stefan.fralick 10 Nov 21, 2013 08:26 PM

not to nitpick, but I found it was easier to play (had a more logical pattern) and sounded better this way: (bracketed notes were notes are 'corrections')

e--------5---------------------------6-----------------------|
B-----------------6-8-6-----------------------8-(10)-8-------|
G---5--5----------------7--------7-7-------------------(9)---|
D------------------------------------------------------------|
A------------------------------------------------------------|
E------------------------------------------------------------|

e-----------8------------------------------------------------|
B---(9)-(9)-------10-11-(13)-(15)------8-10----------8-------|
G-----------------------------------10----------9-10---(10)--|
D------------------------------------------------------------|
A------------------------------------------------------------|
E------------------------------------------------------------|


the final note is what sounds best, because it felt incomplete without the additional monkey noises XD

guest
You may want to rate the tab now too:
select rating
Wanna post a correction for this tab? Suggest correction