Oops, an error
Loading. Please wait.
We have an official Doom - E1M1 - Hangar tab made by UG professional guitarists. Check out the tab »
×
69,937 views 273 this week
5 commentsread comments
1 2 3 4 5
x 22
add to favorites
×
Save as Personal and add changes to this tab that will be seen only by you. Learn more ›
×
You can save this tab as Personal to edit and correct it or add notes. All changes will be seen only by you. Learn more »
launch autoscroll
font size
0
reset
how to read this tab
guitar tuner
edit
Autoscroll
slow
fast
+/-
esc
set tempo
stop
Author
Unregistered
Song:           'Doom' E1M1 - Hangar
Artist:         ID Software (SonicClang 'Classic Doom3 Edit')
Tuning:         Normal
Pages:          1
Tabs:           By Ophion
Comments:       This doesn't include the schreds
For timing:     http://www.youtube.com/watch?v=-8wo0KBQ3oI

e|---------------------------------------------------------|
B|---------------------------------------------------------|
G|---------------------------------------------------------|
D|---------------------------------------------------------|
A|-----7-----5-----3-----1-----2-3-----7-----5-----3-----1-|
E|-0-0---0-0---0-0---0-0---0-0-----0-0---0-0---0-0---0-0---| 2x

e|---------------------------------------------------------|
B|---------------------------------------------------------|
G|---------------------------------------------------------|
D|-----7-----5-----3-----1-----2-3-----7-----5-----3-----1-|
A|-0-0---0-0---0-0---0-0---0-0-----0-0---0-0---0-0---0-0---|
E|---------------------------------------------------------|

e|---------------------------------------------------------|
B|---------------------------------------------------------|
G|---------------------------------------------------------|
D|---------------------------------------------------------|
A|-----7-----5-----3-----1-----2-3-----7-----5-----3-----1-|
E|-0-0---0-0---0-0---0-0---0-0-----0-0---0-0---0-0---0-0---|

e|---------------------------------------------------------|
B|---------------------------------------------------------|
G|-----6-----4-------------------------4-----2-------------|
D|-----------------7-----5-----6-7-----------------5-----3-|
A|-4-4---4-4---4-4---4-4---4-4-----2-2---2-2---2-2---0-0---|
E|---------------------------------------------------------|

e|---------------------------------------------------------|
B|---------------------------------------------------------|
G|---------------------------------------------------------|
D|---------------------------------------------------------|
A|-----7-----5-----3-----1-----2-3-----7-----5-----3-----1-|
E|-0-0---0-0---0-0---0-0---0-0-----0-0---0-0---0-0---0-0---|

            
            
Suggest correction
Creating personal tab
Creating personal tab
You can edit any tab online and save it as your Personal.

You can edit, replace or remove any tab part or add personal notes – all changes will be seen only by you.

Personal tabs can be accessed anytime from any device, even offline.
Learn more »
comments
print report bad tab
5 comments total. Showing first comments. show 1 bad comment
+3 reply
daniel.walle 10 Nov 03, 2015 07:06 PM

nice, i loved the doom music even when it was just a midi track, but on guitar it sounds a lot better

-1 reply
splooshamus 10 Jul 22, 2016 06:45 PM

e|---------------------------------------------------------|
B|---------------------------------------------------------|
G|---------------------------------------------------------|
D|---------------------------------------------------------|
A|-----7-----5-----3-----1-----2-3-----7-----5-----3-----1-|
E|-0-0---0-0---0-0---0-0---0-0-----0-0---0-0---0-0---0-0---| 2x
I dont think there are two down plucks after the first one

e|---------------------------------------------------------|
B|---------------------------------------------------------|
G|---------------------------------------------------------|
D|---------------------------------------------------------|
A|-----7-----5-----3-----1-----2-3-----7-----5-----3-----1-|
E|-0-0---0-x---0-x---0-x---0-x-----0-x---0-x---0-x---x-0---| 2x

guest
Wanna post a correction for this tab? Suggest correction