Oops, an error
Loading. Please wait.

Fallout 4 - Main Theme tab

version 2
version 2

Whole song

25,321 views 330 this week
2 commentsread comments
1 2 3 4 5
x 20
add to favorites
×
Save as Personal and add changes to this tab that will be seen only by you. Learn more ›
×
You can save this tab as Personal to edit and correct it or add notes. All changes will be seen only by you. Learn more »
launch autoscroll
font size
0
reset
how to read this tab
guitar tuner
edit
Autoscroll
slow
fast
+/-
esc
set tempo
stop
Author
Difficulty
-------------------------------------------------------------------------------
                             Fallout 4 - Main Theme
-------------------------------------------------------------------------------
Tabbed by: Dan Foy

Tuning: Standard


[Intro]

     main                                   background
e|---------------------------------------------------------------------------|
B|---------------------------------------------------------------------------|
G|------------------------------------------8-10-8---------------------------|
D|----------------------------5----------------------------------------------|
A|---3-6--7----3-6--7----3-6----5--3-5---------------------------------------|
E|---------------------------------------------------------------------------|


[Chorus 1]

     main              background     main            background              
e|----------------------------------------------------8--10------------------|
B|----------------8--------8----------------------8--------------------------|
G|---7--5---3--5--5----5-8---7-3-5----8--10---7-3-5--------------------------|
D|---------------------------------------------------------------------------|
A|---------------------------------------------------------------------------|
E|---------------------------------------------------------------------------|
     main              background   main            background
e|---------------------8--6--8----------------------8------------------------|
B|----------------8-----------------------------8----------------------------|
G|---8--7--5-3-5--5-----------------8--7--5-3-5-5----------------------------|
D|---------------------------------------------------------------------------|
A|---------------------------------------------------------------------------|
E|---------------------------------------------------------------------------|


[Modified Intro]

     main                                 main/background
e|---------------------------------------------------------------------------|
B|----------------------------------------6----------------------------------|
G|---------------------------------------------------------------------------|
D|------------------4---------------------3----------------------------------|
A|---3--6--7--6--3---------3--6--7--6--3-------------------------------------|
E|---------------------------------------------------------------------------|


[Bridge]

     main
e|----------------------------------6--7--9--9-------------------------------|
B|-----------------------6--8--9-9-------------------------------------------|
G|---5--8--9----5--8--9------------------------------------------------------|
D|---------------------------------------------------------------------------|
A|---------------------------------------------------------------------------|
E|---------------------------------------------------------------------------|


[High Chorus/Swell]

     main                 background      main/background
e|---11--12--11--9----9-----------------------------------6--9--9------------|
B|-----------------12-----------------------7-----------9-7--7--9------------|
G|------------------------9-8-9--6---6----9---8---6-6-6-6--------------------|
D|---------------------------------9-7----------9-8-6-8----------------------|
A|---------------------------------------------------------------------------|
E|---------------------------------------------------------------------------|


[Outro]

    main
e|---------------------------------------------------------------------------|
B|---------------------------------------------------------------------------|
G|-----------------------------6---------------------------------------------|
D|--------------------------7--6---------------------------------------------|
A|---4--7--8---4--7---7--9-----4---------------------------------------------|
E|--------------------5--5---------------------------------------------------|

I waited years for this game to come out, and when I first heard the theme
(on the pre-release trailer) it gave me the shivers.  It's essentially an 
update to the theme for Fallout 3.  I had a lot of trouble finding anything
online that sounded right to me, so I decided to have a crack at it as my
first attempt at tabbing someone else's music.

This is an arrangement for one guitar.  A lot of the melody comes down to
interplay between the main instrument and the strings in the background, so
I've compiled both parts into one tab with a couple of chords to make the
separate parts work together when you play along to the theme on the intro
screen.

Enjoy!

            
            
Suggest correction
Creating personal tab
Creating personal tab
You can edit any tab online and save it as your Personal.

You can edit, replace or remove any tab part or add personal notes – all changes will be seen only by you.

Personal tabs can be accessed anytime from any device, even offline.
Learn more »
comments
print report bad tab
2 comments total.
0 reply
wagner.n.timao 10 Mar 05, 2016 09:02 AM

Wow, que foda.. Ficou muito legal a tab! Adorei!

0 reply
foyyy 81 Apr 07, 2016 01:44 AM

Obrigado, wagner.n.timao!

guest
You may want to rate the tab now too:
select rating
Wanna post a correction for this tab? Suggest correction