Oops, an error
Loading. Please wait.

Final Fantasy 6 - Overworld tab

7,985 views 9 this week
4 commentsread comments
1 2 3 4 5
x 21
add to favorites
×
Save as Personal and add changes to this tab that will be seen only by you. Learn more ›
×
You can save this tab as Personal to edit and correct it or add notes. All changes will be seen only by you. Learn more »
launch autoscroll
font size
0
reset
how to read this tab
guitar tuner
edit
Autoscroll
slow
fast
+/-
esc
set tempo
stop
This is a nifty little piece from Final Fantasy 6, when you're wondering over the
world map. Longer gaps indicate a greater pause, for those unfamiliar with the piece.

E-------8-12-8--------------------------8-12-8--------------12-
B-10-12------------12-10-12-------10-12------------12-10-12----
G----------------------------9---------------------------------
D--------------------------------------------------------------
A--------------------------------------------------------------
E--------------------------------------------------------------

E-8-10-12-15-12----10-8-10-------------------------------------
B--------------------------8------13-12-10-----13-12-10--------
G--------------------------------------------------------------
D--------------------------------------------------------------
A--------------------------------------------------------------
E--------------------------------------------------------------


Michael Zhu
valorthegreat@idx.com.au

            
            
Suggest correction
Creating personal tab
Creating personal tab
You can edit any tab online and save it as your Personal.

You can edit, replace or remove any tab part or add personal notes – all changes will be seen only by you.

Personal tabs can be accessed anytime from any device, even offline.
Learn more »
comments
print report bad tab
4 comments total. Showing first comments.
0 reply
!_ToToy_! 40 May 04, 2004 08:00 PM

nice it deserves a 5 cuz its like this lol

0 reply
soulgazer 30 Dec 22, 2006 01:43 AM

THIS ROX, ive been looking for playing this one for AGES!!!!!!!

+2 reply
Crimson83 10 May 21, 2007 01:08 AM

the 2nd part 10 8 10 "12", the 12 should be 8. aside from that its perfect

guest
You may want to rate the tab now too:
select rating
Wanna post a correction for this tab? Suggest correction