Oops, an error
Loading. Please wait.

Final Fantasy 7 - Cosmo Canyon tab

version 1
version 1

Whole song

Interactive

8,024 views 3 this week
2 commentsread comments
1 2 3 4 5
x 7
add to favorites
×
Save as Personal and add changes to this tab that will be seen only by you. Learn more ›
×
You can save this tab as Personal to edit and correct it or add notes. All changes will be seen only by you. Learn more »
launch autoscroll
font size
0
reset
how to read this tab
guitar tuner
edit
Autoscroll
slow
fast
+/-
esc
set tempo
stop
Author
Hey this is my first Tab so if its wroung dont yell at me

Heres the Tab it sounds pretty close to whats in the game
tell me what you think

pm= palm mute
r= release palm mute

|----------------------------------9-9-9------------9-9----
|------------------------------------------------10---------
|------------------------------------------7-9-9------------
|----------------------------------------9------------------
|-----------------------------------------------------------
|-0-pm-0-0-r-0-pm-0-0-r-0-pm-0-0-r--------------------------

|------------------------------------------------------------
|-7-6-5-7----------------------------------------------------
|---------------------7--------------------------------------
|---------7---7-9-8-9---9-0-7--------------------------------
|------------------------------------------------------------
|-----------7-----------------pm-0-0-r-0---------------------
                                         repeat from the begging

 I think thats its Enjoy

            
            
Suggest correction
Creating personal tab
Creating personal tab
You can edit any tab online and save it as your Personal.

You can edit, replace or remove any tab part or add personal notes – all changes will be seen only by you.

Personal tabs can be accessed anytime from any device, even offline.
Learn more »
comments
print report bad tab
2 comments total.
0 reply
NE0_ARSONIST 20 Feb 23, 2003 07:00 PM

i forgot part of the ending when i wrote this but i found another way to play it it goes

all the stuff up to the
|--------7--------
|-7-9-8-9-9-0-7---
|----------------- part instead play..

|---------7------
|----------9-----
|--7-8-9-8--7-0-7
|----------------

i dont if its better but u decide

0 reply
NE0_ARSONIST 20 Feb 23, 2003 07:00 PM

frigin UG messed that up the
|7-8-9-8-|

and

|7--
|-9-
|--8

are seperate

guest
You may want to rate the tab now too:
select rating
Wanna post a correction for this tab? Suggest correction