Oops, an error
Loading. Please wait.

Final Fantasy 8 - Breezy tab

version 1
version 1

Whole song

Interactive

108,213 views 102 this week
6 commentsread comments
1 2 3 4 5
x 29
add to favorites
×
Save as Personal and add changes to this tab that will be seen only by you. Learn more ›
×
You can save this tab as Personal to edit and correct it or add notes. All changes will be seen only by you. Learn more »
launch autoscroll
font size
0
reset
how to read this tab
guitar tuner
edit
Autoscroll
slow
fast
+/-
esc
set tempo
stop
Breezy
Final Fantasy VIII

Tabbed by:
Toshiro

Tuning: E-A-D-G-B-E

e|-------2-------2-------2-------2-------0-------0-------3-------3-|
B|-----0-----0---------0-----0---------0-----0---------0-----0-----|
G|---2---------2-----2---------2-----0---------0-----0---------0---|
D|-0---------------0---------------0---------------0---------------|
A|-----------------------------------------------------------------|
E|-----------------------------------------------------------------|

e|-------2-------2-------2-------2-------0-------0-3-----2-----0---|
B|-----0-----0---------0-----0---------0-----0---------3-----3-----|
G|---2---------2-----2---------2-----0---------0-----4-----2---0-3-|
D|-0---------------0---------------0---------------0-----0---------|
A|-----------------------------------------------------------------|
E|-----------------------------------------------------------------|
                                        
e|-------2-------2-------2h3p2-----2--------0-------0-------3-----3---|
B|-----2-----2---------2-------2----------3-----3-------2-----2-----2-|
G|---2---------2-----2-----------2------0---------0-------4-----4-----|
D|-0---------------0------------------0---------------0---------------|
A|--------------------------------------------------------------------|
E|--------------------------------------------------------------------|

e|-------2-------2-5-----3-----2---3-----2-----3---0---|
B|-----2-----2-------1-------1---1-----0-----0---0-2---|
G|---2---------2-------4---4---------0-----0-------2---|
D|-0---------------0---------------2-----0-----2---2---|
A|-----------------------------------------------------|
E|-----------------------------------------------------|

e|-2-----2-------2-5-----5-------5-7-----7-------7-5-----5-------5-|
B|---3-------3-------6-------6-------8-------8-------7-------7-----|
G|-----2-------2-------5-------5-------7-------7-------7-------7---|
D|-0---------------0---------------0---------------0---------------|
A|-----------------------------------------------------------------|
E|-----------------------------------------------------------------|

e|-2-----2-------2-5-----5-------5-7-----7-------7-5-----------------|
B|---3-------3-------6-------6-------8-------8--------[7]------------|
G|-----2-------2-------5-------5-------7-------7-----------[7]-------|
D|-0---------------0---------------0---------------0------------[7]--|
A|-------------------------------------------------------------------|
E|-------------------------------------------------------------------|

e|-------3-------3-5-----3-------3-------3-------3-5-----3---------|
B|-----3-----3-------3-------3---------3-----3-------3-------3---3-|
G|---4---------4-------4-------4-----3---------3-------3-------3---|
D|-0---------------0---------------0---------------0---------------|
A|-----------------------------------------------------------------|
E|-----------------------------------------------------------------|

e|-------2-------2-------2-------2-------0----------3---|
B|-----0-------0-------0-------0-------3-----3---3--3---|
G|---2-------2-------2-------2-------3---------3----3---|
D|-0-------------------------------0----------------0---|
A|------------------------------------------------------|
E|------------------------------------------------------|



************************************

| h  Hammer-on
| p  Pull-off

************************************

            
            
Suggest correction
Creating personal tab
Creating personal tab
You can edit any tab online and save it as your Personal.

You can edit, replace or remove any tab part or add personal notes – all changes will be seen only by you.

Personal tabs can be accessed anytime from any device, even offline.
Learn more »
comments
print report bad tab
6 comments total. Showing first comments.
0 reply
Toshiro 352 Jun 06, 2006 07:42 AM

I found a mistake in my tab! On the 4th line, the third "0" on the D string should be a 2.

0 reply
Toshiro 352 Jun 06, 2006 07:43 AM

And the artificial harmonics with the 2,3,2 should be natural harmonics on the 7's, starting on the B string down.

0 reply
Toshiro 352 Jun 06, 2006 07:44 AM

I'm going to try to resubmit this tab and see if UG will notice the changes.

guest
You may want to rate the tab now too:
select rating
Wanna post a correction for this tab? Suggest correction