Oops, an error
Loading. Please wait.

Guitar Hero 3 - Guitar Battle Vs Slash bass

version 1
version 1

Whole song

Interactive

3,547 views 1 this week
1 commentread comment
1 2 3 4 5
x 3
add to favorites
×
Save as Personal and add changes to this tab that will be seen only by you. Learn more ›
×
You can save this tab as Personal to edit and correct it or add notes. All changes will be seen only by you. Learn more »
launch autoscroll
font size
0
reset
guitar tuner
edit
Autoscroll
slow
fast
+/-
esc
set tempo
stop
Author
----------------------------------------------------------------------------
		Guitar Battle vs. Slash - Slash
----------------------------------------------------------------------------

Tabbed By : Bassface01
e-mail: guneagleluke@charter.net
Tuning: Standard

I figured since no one has tabbed the bass for the guitar hero slash battle, I might as 
give it a shot. E-mail me if you think somethings wrong, i think this is pretty close though.

Intro - Play this after a little bit of the guitar intro, you'll hear it.
G|-----------------------------------------|
D|-----------------------------------------|
A|2-2-2-2-2-2-2-2-2-2-2-2-2--2--2----------|
E|-----------------------------------------|

This is the main rift played throughout the song
G|------------------|
D|------------------|
A|------------1h2---| X4
E|0-0-3b-0-00-------|

G|------------------|
D|------------1h2---|
A|0-0-3b-0-00-------| X2
E|------------------|

G|------------------|
D|------------------|
A|------------1h2---| X2
E|0-0-3b-0-00-------|


G|----------------------------------------------------------------|
D|-----------2p0--------------------------------------------------|
A|2-2-5b--22------0-0-3b--00-0-3p2--------------1h2--2-2-2--------|
E|----------------------------------0-0-3b-00-0-------------------|


G|------------------|
D|------------------|
A|------------1h2---| X4
E|0-0-3b-0-00-------|

G|------------------|
D|------------1h2---|
A|0-0-3b-0-00-------| X2
E|------------------|

G|------------------|
D|------------------|
A|------------1h2---| X2
E|0-0-3b-0-00-------|


There's a change at the end of this part on this time
G|----------------------------------------------------------------|
D|-----------2p0--------------------------------------------------|
A|2-2-5b--22------0-0-3b--00-0-3p2-------------1h2--2--2--2-------|
E|---------------------------------0-0-3b-00-0--------------------|


G|------------------|
D|------------------|
A|------------1h2---| X4
E|0-0-3b-0-00-------|

G|------------------|
D|------------1h2---|
A|0-0-3b-0-00-------| X2
E|------------------|

G|------------------|
D|------------------|
A|------------1h2---| X2
E|0-0-3b-0-00-------|


G|----------------------------------------------------------------|
D|-----------2p0--------------------------------------------------|
A|2-2-5b--22------0-0-3b--00-0-3p2--------------1h2--2-2-2--------|
E|----------------------------------0-0-3b-00-0-------------------|


G|------------------|
D|------------------|
A|------------1h2---| X4
E|0-0-3b-0-00-------|

G|------------------|
D|------------1h2---|
A|0-0-3b-0-00-------| X2
E|------------------|

G|------------------|
D|------------------|
A|------------1h2---| X2
E|0-0-3b-0-00-------|


G|-------------------------------------------------------------------------|
D|-----------2p0-----------------------------------------------------------|
A|2-2-5b--22------0-0-3b--00-0-3p2-------------------1h2--2----------------|
E|--------------------------------------0-0-3b-00-0---------3--0-----------|

| /  slide up
| \  slide down
| h  hammer-on
| p  pull-off
| ~  vibrato
| +  harmonic
| x  Mute note
============================================================================

            
            
Suggest correction
Creating personal tab
Creating personal tab
You can edit any tab online and save it as your Personal.

You can edit, replace or remove any tab part or add personal notes – all changes will be seen only by you.

Personal tabs can be accessed anytime from any device, even offline.
Learn more »
Give kudos to tab author, rate the tab!
1 2 3 4 5
comments
print report bad tab
1 comment total.
+1 reply
Dark Raven X 108 Jan 22, 2008 04:48 AM

Nice. I'ma POWAH CHORD it and play it on guitar. Since the actual guitar in that song is just O_o...

guest
You may want to rate the tab now too:
select rating
Wanna post a correction for this tab? Suggest correction