Oops, an error
Loading. Please wait.

Guitar Hero 3 - Guitar Battle Vs Slash tab

version 1
version 1

Whole song

Interactive

24,528 views 1 this week
2 commentsread comments
1 2 3 4 5
x 11
add to favorites
×
Save as Personal and add changes to this tab that will be seen only by you. Learn more ›
×
You can save this tab as Personal to edit and correct it or add notes. All changes will be seen only by you. Learn more »
launch autoscroll
font size
0
reset
how to read this tab
guitar tuner
edit
Autoscroll
slow
fast
+/-
esc
set tempo
stop
Author
Difficulty
stefanlowe@msn.com

Guitar Hero Battle vs. Slash Introduction. 


|-------0-------------------------------------------------------------------------------|
|-----------0----3b~~~~2h3p2p0---2b3rp0--2p0--------------------------------------------|
|--3b5---------------------------------------2p0--2p0-----------------------------------|
|-----------------------------------------------------2p0h2~~~~~~~~~~~~~----------------|
|---------------------------------------------------------------------------------------|
|---------------------------------------------------------------------------------------|

|---------12---------------15--------------12-------------------------------------------|
|--------------15-15b17--------(17)--15b17----15---12----------------------------15b17~~|
|--12h14---------------------------------------------(16)r14--12---14b16r--12-----------|
|-----------------------------------------------------------------------------14--------|
|---------------------------------------------------------------------------------------|
|---------------------------------------------------------------------------------------|

|------5------7------8-------9--------8-----7------5---------3b4------------------------|
|---------------------------------------------------------------------------------------|
|-\6------\8------\9----\10-------9-----8-----\6------/4--------------------------------|
|---------------------------------------------------------------------------------------|
|---------------------------------------------------------------------------------------|
|---------------------------------------------------------------------------------------|


|---15b18rb16-12-----12-----------------------------------------------------------------|
|----------------15-----12--15b19r-12-----15---12--15p12--------------------------------|
|-------------------------------------14---------------------------15-------------------|
|--------------------------------------------------------[14b16]------(16)r14-14b16~~~~-|
|------------------------------------------------------[VERY-QUIET]---------------------|
|---------------------------------------------------------------------------------------|

|---------------------------------------------------------------------------------------|
|---------------------------------------------------------------------------------------|
|-16br--14h16---12b13r------------------------------------------------------------------|
|-16br----------------------------------------------------------------------------------|
|---------------------------------------------------------------------------------------|
|---------------------------------------------------------------------------------------|

|----------12---------------------------------------------0--------0--------------------|
|-15b17--------15p12----------------------0----------12------3/5~~\0--------------------|
|---------------------15/14--12---14bp12-----12------12b--------------------------------|
|---------------------------------------------------------------------------------------|
|---------------------------------------------------------------------------------------|
|---------------------------------------------------------------------------------------|

            
            
Suggest correction
Creating personal tab
Creating personal tab
You can edit any tab online and save it as your Personal.

You can edit, replace or remove any tab part or add personal notes – all changes will be seen only by you.

Personal tabs can be accessed anytime from any device, even offline.
Learn more »
comments
print report bad tab
2 comments total.
+3 reply
prophetsfan 20 Jul 21, 2008 12:43 PM

If your only doing the intro, POST IT AS INTRO!!! lol

+1 reply
death eater 97 Jan 23, 2009 05:41 AM

i agree... But... Um... since its shown as tab, but you have the intro... im not sure if i should say good intro or wheres the rest? lol

guest
You may want to rate the tab now too:
select rating
Wanna post a correction for this tab? Suggest correction