Oops, an error
Loading. Please wait.

Halo 2 Theme bass

version 1
version 1

Whole song

Interactive

28,761 views 12 this week
5 commentsread comments
1 2 3 4 5
x 11
add to favorites
×
Save as Personal and add changes to this tab that will be seen only by you. Learn more ›
×
You can save this tab as Personal to edit and correct it or add notes. All changes will be seen only by you. Learn more »
launch autoscroll
font size
0
reset
guitar tuner
edit
Autoscroll
slow
fast
+/-
esc
set tempo
stop
Author
Difficulty
Legend

/ - slide

\ - slide to/from "nowhere"

p - pull-off

h - hammer-on

~ - vibrato

b - bend full-note

^ - bend half-note

x - mute

* - harmonic



Intro 

You can either simply hold the note below through the intro:

G|---------------------------------------------------|
D|---------------------------------------------------|
A|---------------------------------------------------|
E|-0~~~~~~~~-----------------------------------------|

Or you can follow the choral singing by playing this:

G|-----------------------------------------------|
D|-----------------------------------------------|
A|-----------------------------------------------|
E|-0-------2---3---2-2/5---3---2-------0---------|
 |
G|-----------------------------------------------|
D|-----------------------------------------------|
A|-----------------------------------------------|
E|-----7---9---10----------9---5---9---7---------|
 |
G|-----------------------------------------------|
D|-----------------------------------------------|
A|-----------------------------------------------|
E|-----0------2---3---5------2~~~~---------------|
 |
G|-----------------------------------------------|
D|-----------------------------------------------|
A|-----------------------------------------------|
E|-----0---3---2---0---2~~~~-------0~~~~---------|


Pre-Verse 1

G|-----------------------------------------------|
D|-----------------------------------------------|
A|-----------------------------------------------|
E|------------------------------------------12/--|
 Repeat the riff below 3 times
  00:39
G|-------------------------------------------------|
D|-------------------------------------------------|
A|-------------------------------------------------|---------------\
E|-------0-----------------------2-----------------|Note: These two \
 |                                                  Are The Same    |
G|-------------------------------------------------|  Riff,         /
D|-------------------------------------------------|---------------/
A|-------------------------------------------------|
E|-------3-----------------------5-----------5-3-2-|
  1:02
G|-------------------------------------------------|
D|-------------------------------------------------|Play 2 Times
A|-------------------------------------------------|
E|-------0-----------2-----------3-------------5---|
If you think the riff above get's boring to play, add some notes 
Like in the tablature Below:
G|-------------------------------------------------|
D|-------2---2-------4---4-------5---5-------7-5-4-|
A|-------------------------------------------------|
E|-0---0-------2---2-------3---3-------5---5-------|
 
G|-------------------------------------------------|
D|-------2---2-------4---4-------5---5-------------|
A|-------------------------------------------------|
E|-0---0-------2---2-------3---3-------0-2-3-5-3-2-|

Verse 1
  1:10
G|-------------------------------------------------|
D|-------------------------------------------------|
A|-------------------------------------------------|
E|-------0-----------------------2-----------------|
 |
G|-------------------------------------------------|
D|-------------------------------------------------|
A|-------------------------------------------------|
E|-------3-----------------------5-----------5-3-2-|
If you think the riff above get's boring to play 
you can add some notes, Like in the tablature below:
G|-------------------------------------------------|
D|-------2-----------------------4-----------------|
A|-------------------------------------------------|
E|-0---0-------------------2---2-------------------|
 |
G|-------------------------------------------------|
D|-------5-----------------------7-----------------|
A|-------------------------------------------------|
E|-3---3-------------------5---5-------------5-3-2-|
 
1:18
G|-------------------------------------------------|
D|-------------------------------------------------|
A|-------------------------------------------------|Play 3 Times
E|-------0-----------2-----------3-----------5-----|
If you think the riff above gets boring to play, add some notes
Like in the Tablature Below:
G|-------------------------------------------------|
D|-------2-----------4-----------5-----------------|Play 3 times
A|-------------------------------------------------|
E|-0-----------2-----------3-----------5-----2-----|

Bridge 1
 1:29
G|-------------------------------------------------|
D|-------------------------------------------------|
A|-------------------------------------------------|
E|-------3~~~~~~~~~~~~~~~~~~~~---------------------|
 
G|-------------------------------------------------|
D|-------------------------------------------------|
A|-------------------------------------------------|
E|-------5~~~~~~~~~~~~~~~~~~~~---------------------|

Interlude
1:37
G|-------------------------------------------------|
D|-------------------------------------------------|Play 2 Times
A|-------------------------------------------------|
E|-------0-----------2-----------3-----------5-3-2-|
 
G|-------------------------------------------------|
D|-------------------------------------------------|
A|-------------------------------------------------|
E|-------0-----------------------2-----------------|
 |
G|-------------------------------------------------|
D|-------------------------------------------------|
A|-------------------------------------------------|
E|-------3-----------------------5-----------5-3-2-|

Bridge 2

G|-------------------------------------------------|
D|-------------------------------------------------|
A|-------------------------------------------------|
E|-------3~~~~~~~~~~~~~~~~~~~~---------------------|
 
G|-------------------------------------------------|
D|-------------------------------------------------|
A|-------------------------------------------------|
E|-------5~~~~~~~~~~~~~~~~~~~~---------------------|

Verse 2
2:00
G|-------------------------------------------------|
D|---------------------------------------4-5-7-5-4-|
A|-------------------------------------------------|
E|-------0---0---2---2---2-------3---3-------------|
 |
G|-------------------------------------------------|
D|-------------------------------------------------|
A|-------------------------------------------------|Play 7 Times
E|-------0-----------2-----------3-------2-3-5-3-2-|
 

 
Interlude 2
2:31
G|-------------------------------------------------|
D|-------------------------------------------------|
A|-------------------------------------------------|
E|-------0-----------2-----------3-----------5-----|
 |
G|-------------------------------------------------|
D|-------------------------------------------------|
A|-------7-----------9-----------10----------12----|
E|-------------------------------------------------|
 |
G|-------------------------------------------------|
D|-------9-----------11----------12----------14----|
A|-------------------------------------------------|
E|-------------------------------------------------|


Bridge 3
2:43
G|-------------------------------------------------|
D|-------------------------------------------------|
A|-------------------------------------------------|
E|-------3~~~~~~~~~~~~~~~~~~~~---------------------|
 
G|-------------------------------------------------|
D|-------------------------------------------------|
A|-------------------------------------------------|
E|-------5~~~~~~~~~~~~~~~~~~~~---------------------|


Verse 3
2:50
G|-------------------------------------------------|
D|-------------------------------------------------| Play 2 Times
A|-------------------------------------------------|
E|-------0---0---2---2---2-------3---3---2-3-5-3-2-|
 
G|-------------------------------------------------|
D|-------------------------------------------------|
A|-------------------------------------------------|Play 2 Times
E|-------0-----------2-----------3-----0-2-3-5-3-2-|
 


Bridge 4
3:06
G|-------------------------------------------------|
D|-------------------------------------------------|
A|-------------------------------------------------|
E|-------3~~~~~~~~~~~~~~~~~~~~---------------------|
 
G|-------------------------------------------------|
D|-------------------------------------------------|
A|-------------------------------------------------|
E|-------5~~~~~~~~~~~~~~~~~~~~---------------------|

Outro-Verse
3:13
G|-------------------------------------------------|
D|-------------------------------------------------|
A|-------------------------------------------------|
E|-------0----------------------2------------------|
 |
G|-------------------------------------------------| 
D|-------------------------------------------------|
A|-------------------------------------------------|
E|-------3-----------------------5-----------5-3-2-|
 |
G|-------------------------------------------------|
D|-------------------------------------------------|
A|-------------------------------------------------|
E|-------0----------------------2------------------|
 |
G|-------------------------------------------------| 
D|-------------------------------------------------|
A|-------------------------------------------------|
E|-------3-----------------------5~~~~~~~~~~~~-----|
 
Then theres a vocal outro, and there you can do the same as in the beggining of the song. 

And that's it! :)

Think i got it right... enjoy!





            
            
Suggest correction
Creating personal tab
Creating personal tab
You can edit any tab online and save it as your Personal.

You can edit, replace or remove any tab part or add personal notes – all changes will be seen only by you.

Personal tabs can be accessed anytime from any device, even offline.
Learn more »
comments
print report bad tab
5 comments total. Showing first comments.
+2 reply
thunderhawk 535 Sep 17, 2008 07:55 PM

good tab but i have NO idea when the hell to start plz i want to use this tab but i do not know when to start.aaaaaaaaaaaaa. just tell me by commenting me on my profile. if u dont mind

+3 reply
Hardcore4guitar 10 Oct 27, 2008 09:50 PM

Good tab, gets a little messy with those "if you think the tablature above get's boring to play, you can play this" stuff, but those are pretty good to for beginners. Other than that i have no complains at all, great tab!

+3 reply
Metalmannen 134 Nov 03, 2008 10:28 AM

Oh, great that you liked the tab :P and yeah, those "If you think this riff above gets boring..." thingys were for the newbies :)
And thanks to whoever rated this tab! ;D

guest
You may want to rate the tab now too:
select rating
Wanna post a correction for this tab? Suggest correction