Oops, an error
Loading. Please wait.

Halo 3 Theme intro tab

version 1
version 1

Intro

Whole song

Interactive

8,873 views 3 this week
5 commentsread comments
1 2 3 4 5
x 6
add to favorites
×
Save as Personal and add changes to this tab that will be seen only by you. Learn more ›
×
You can save this tab as Personal to edit and correct it or add notes. All changes will be seen only by you. Learn more »
launch autoscroll
font size
0
reset
how to read this tab
guitar tuner
edit
Autoscroll
slow
fast
+/-
esc
set tempo
stop
Author
Difficulty
this is the main tune for the song.
its my first tab so please rate i think its right

 e -----------------------------------------|
 B -----------------------------------------|
 G ------9----11-----12-----14---14--12--11-|
 D ------9----11-----12-----14---14--12--11-|
 A ------7----9------10-----12---12--10--9--|
 E -----------------------------------------|


that's it just repeat as necessary!

RATE

Fixed it :P

            
            
Suggest correction
Creating personal tab
Creating personal tab
You can edit any tab online and save it as your Personal.

You can edit, replace or remove any tab part or add personal notes – all changes will be seen only by you.

Personal tabs can be accessed anytime from any device, even offline.
Learn more »
comments
print report bad tab
5 comments total. Showing first comments.
0 reply
Ryan Nias 215 Jul 28, 2009 09:05 AM

Erm. Your tab is upside down, but the strings are correct.

0 reply
neonfox3 37 Aug 01, 2009 07:42 PM

lol yeah man its correct but its upside down
should be this...
e -----------------------------------------|
B -----------------------------------------|
G ------9----11-----12-----14---14--12--11-|
D ------9----11-----12-----14---14--12--11-|
A ------7----9------10-----12---12--10--9--|
E --000---000----000----000----------------|

0 reply
ryAn132 116 Nov 19, 2009 01:15 AM

lol sorry bout that but its still right

guest
You may want to rate the tab now too:
select rating
Wanna post a correction for this tab? Suggest correction