Oops, an error
Loading. Please wait.

Halo 5 Guardians - Light Is Green bass

91 views 3 this week
no commentswrite comment
1 2 3 4 5
3 more votes to show rating
add to favorites
×
Save as Personal and add changes to this tab that will be seen only by you. Learn more ›
×
You can save this tab as Personal to edit and correct it or add notes. All changes will be seen only by you. Learn more »
launch autoscroll
font size
0
reset
guitar tuner
edit
Autoscroll
slow
fast
+/-
esc
set tempo
stop
Author
Difficulty
About this tab version
Includes bar lines and timing of when various parts of the piece begin. Was this info helpful? Yes No
Halo 5: Guardians - Light is Green - Bass Tab

Note: Forgive me if I put the bars in incorrectly. I've never had to 
write them into a tab before, so please correct me if I'm wrong.

[Intro: Part I (The timing for the notes is difficult to make clear,
so just listen to the song while you play. It's easy to pick up.]
[Bass comes in at 0:20]
G|----------------|----------------|----------------|----------------|
D|----------------|----------------|-------9--7~----|----------------|
A|-------5~-------|-7~----9~-------|-7--9-----------|-9~-------------|
E|-7~-------------|----------------|----------------|----------------|

G|--------7--6~---|----------------|----------------|----------------|
D|-----7----------|-7~-------------|--------7-------|----------------|
A|-10-------------|----------------|-10--9-----7~---|-9~-------------|
E|----------------|----------------|----------------|----------------|

G|----------------|----------------|----------------|----------------|
D|--------7-------|----------------|----------------|----------------|
A|-10--9-----5~---|-7~-------------|-7~-------------|-7~-------------|
E|----------------|----------------|----------------|----------------|

[Intro: Part II]
[1:07]
G|-------------|-------------|-------------|-------------|
D|-------------|-------------|-------------|-------------|
A|-7-7-7-7-7-7-|-7-7-7-7-7-7-|-7-7-7-7-7-7-|-7-7-7-7-7-7-|
E|-------------|-------------|-------------|-------------|

G|-------------|-------------|
D|-------------|-------------|
A|-------------|-------------|
E|-9-9-9-9-9-9-|-8-8-8-8-8-8-|

[x2]
G|-------------|-------------|-------------|-------------|
D|-------------|-------------|-------------|-------------|
A|-7-7-7-7-7-7-|-7-7-7-7-7-7-|-7-7-7-7-7-7-|-7-7-7-7-7-7-|
E|-------------|-------------|-------------|-------------|

G|-------------|-------------|-------------|-------------|
D|-------------|-------------|-------------|-------------|
A|-7-7-7-7-7-7-|-7-7-7-7-7-7-|-------------|-------------|
E|-------------|-------------|-9-9-9-9-9-9-|-8-8-8-8-8-8-|

[x1]
G|-------------|-------------|-------------|-------------|
D|-------------|-------------|-------------|-------------|
A|-7-7-7-7-7-7-|-7-7-7-7-7-7-|-------------|-------------|
E|-------------|-------------|-9-9-9-9-9-9-|-8-8-8-8-8-8-|

G|-------------|-------------|-------------|-------------|
D|-------------|-------------|-------------|-------------|
A|-------------|-------------|-------------|-------------|
E|-5-5-5-5-5-5-|-5-5-5-5-5-5-|-2-2-2-2-2-2-|-1-1-1-1-1-1-|

[1:56]                       [2:05]
G|-------------|-------------|-------------|-------------|
D|-------------|-------------|-------------|-------------|
A|-------------|-------------|-------------|-------------|
E|-0~----------|-------------|-0~----------|-------------|

[2:14-3:04 (This is played extremely fast, and may be synthesized.)]
G|------------------------------------------------------------------------|
D|------------------------------------------------------------------------|
A|-5---7-----5---7-----5---7-----5---7-----5---7-----5---7-----5----------|
E|---7---7-4---7---7-4---7---7-4---7---7-4---7---7-4---7---7-4---7--------|

[3:05-3:23]
[x2]
G|-------------|-------------|-------------|-------------|
D|-------------|-------------|-------------|-------------|
A|-------------|-------------|-------------|-------------|
E|-0~----------|-2~----------|-3~----------|-5~----------|

___________________________

Key:

~  = Let ring
___________________________

If there's any confusion, questions, or advice on how to 
improve it, please post a comment. Have fun playing, and 
please rate! -Rarrlow

            
            
Suggest correction
Creating personal tab
Creating personal tab
You can edit any tab online and save it as your Personal.

You can edit, replace or remove any tab part or add personal notes – all changes will be seen only by you.

Personal tabs can be accessed anytime from any device, even offline.
Learn more »
Give kudos to tab author, rate the tab!
1 2 3 4 5
comments
print report bad tab
guest
You may want to rate the tab now too:
select rating
Wanna post a correction for this tab? Suggest correction