Oops, an error
Loading. Please wait.

Kingdom Hearts - Dearly Beloved tab

version 1
20,323 views 24 this week
8 commentsread comments
1 2 3 4 5
x 14
add to favorites
×
Save as Personal and add changes to this tab that will be seen only by you. Learn more ›
×
You can save this tab as Personal to edit and correct it or add notes. All changes will be seen only by you. Learn more »
launch autoscroll
font size
0
reset
how to read this tab
guitar tuner
edit
Autoscroll
slow
fast
+/-
esc
set tempo
stop
Author
Dearly Beloved - Kingdom Hearts
Tabbed by: metalgeardave
Email: metalgeardave@hotmail.com

e|--7-7---------9-9-7-7---------9-9-10-10-9-9-14-14-12-12------------|
B|------7-7-5-5---------7-7-5-5--------------------------------------|
G|-------------------------------------------------------------------|
D|-------------------------------------------------------------------| Repeat 8x
A|-------------------------------------------------------------------|
E|-------------------------------------------------------------------|

            
            
Suggest correction
Creating personal tab
Creating personal tab
You can edit any tab online and save it as your Personal.

You can edit, replace or remove any tab part or add personal notes – all changes will be seen only by you.

Personal tabs can be accessed anytime from any device, even offline.
Learn more »
comments
print report bad tab
8 comments total. Showing first comments.
0 reply
Doubleaoni 51 Jan 28, 2006 06:37 AM

its tabbed decent, as far as the consending and desending rythms are concerned. But the fact is, nearly all the notes are half a step too low... makes for a bad sound.

0 reply
Zwie 93 Aug 10, 2006 10:53 AM

yours is good is jus not complete?? i think this is right, and complete!!?!!?

Dearly beloved
e|-7-7---------9-9---|
B|-----7-7-5-5-------|
G|-------------------|
D|-------------------|x2
A|-------------------|
E|-------------------|

e|-10-10-9-9-14-14-12-14-12-10-10-9-9-7-7-5-5----------|
B|-----------------------------------------------------|
G|-----------------------------------------------------|
D|-----------------------------------------------------|
A|-----------------------------------------------------|
E|-----------------------------------------------------|

-1 reply
Zwie 93 Aug 10, 2006 10:55 AM

and u kno speed up on the 14-14-12-14-12

guest
You may want to rate the tab now too:
select rating
Wanna post a correction for this tab? Suggest correction