Oops, an error
Loading. Please wait.

Legend Of Zelda Links Awakening - Tal Tal Mountain Range tab

version 1
version 1

Whole song

Interactive

1,001 views 1 this week
2 commentsread comments
1 2 3 4 5
3 more votes to show rating
add to favorites
×
Save as Personal and add changes to this tab that will be seen only by you. Learn more ›
×
You can save this tab as Personal to edit and correct it or add notes. All changes will be seen only by you. Learn more »
launch autoscroll
font size
0
reset
how to read this tab
guitar tuner
edit
Autoscroll
slow
fast
+/-
esc
set tempo
stop
Author
-------------------------------------------------------------------------------
        Legend Of Zelda: Links Awakening Tal Tal Mountain Range for Gameboy
-------------------------------------------------------------------------------
Game: Legend Of Zelda: Links Awakening
Song: Tal Tal Mountain Range
Platform: Gameboy

Tabbed by: deathx88
Email: deathx88@yahoo.com

Tuning: Standard




Riff 1 (guitar 1) x2


      S S  S  S  S S  S  S  S S  S  S  S S  S  S  
E||--10---10-10-10---10-10-10---10-10-10---10-10-|
B||----------------------------------------------|
G||--12---12-12-12---12-12-12---12-12-12---12-12-|
D||----------------------------------------------|
A||----------------------------------------------|
E||----------------------------------------------|

   S S  S  S  S S  S  S  S S  S  S  S S  S  S  
--12---12-12-12---12-12-12---12-12-12---12-12-|
----------------------------------------------|
--12---12-12-12---12-12-12---12-12-12---12-12-|
----------------------------------------------|
----------------------------------------------|
----------------------------------------------|

   S S  S  S  S S  S  S  S S  S  S  S S  S  S  
--13---13-13-13---13-13-13---13-13-13---13-13-|
----------------------------------------------|
--12---12-12-12---12-12-12---12-12-12---12-12-|
----------------------------------------------|
----------------------------------------------|
----------------------------------------------|

   S S  S  S  S S  S  S  S S  S  S  S S  S  S  
--12---12-12-12---12-12-12---12-12-12---12-12-|
----------------------------------------------|
--12---12-12-12---12-12-12---12-12-12---12-12-|
----------------------------------------------|
----------------------------------------------|
----------------------------------------------|



Riff 1 (guitar 2)
start playing on the second


  Q    Q    S S E  S  S  S S     H.           E  E   
---------------------------8-|--10------------L-----|
--8-------------8--8-10-11---|----------------------|
-------7----L----------------|----------------------|
-----------------------------|----------------------|
-----------------------------|----------------------|
-----------------------------|----------------------|


   Q     Q    S S  S.T  S  S  S  S     H.           S E.   
--15--------------15---15-17-18-20-|--22------------L-----|
--------15----L--------------------|----------------------|
-----------------------------------|----------------------|
-----------------------------------|----------------------|
-----------------------------------|----------------------|
-----------------------------------|----------------------|




Riff 2 (guitar 1)


  S S S S S S S S S S S S S S S S    S S S S S S S S S S S S S S S S  
----------------------------------|----------------------------------|
----------------------------------|----5---5---5---5---5---5---5---5-|
----7---7---7---7---7---7---7---7-|------5-------5-------5-------5---|
--5---8---5---8---5---8---5---8---|--5-------5-------5-------5-------|
----------------------------------|----------------------------------|
----------------------------------|----------------------------------|


  S S S S S S S S S S S S S S S S    S S S S S S S S S S S S S S S S  
----------------------------------|----------------------------------|
----6---6---6---6---6---6---6---6-|----5---5---5---5---5---5---5---5-|
------7-------7-------7-------7---|------5-------5-------5-------5---|
--5-------5-------5-------5-------|--5-------5-------5-------5-------|
----------------------------------|----------------------------------|
----------------------------------|----------------------------------|


  S S S S S S S S S S S S S S S S    S S S S S S S S S S S S S S S S  
----------------------------------|----------------------------------|
----3---3---3---3---3---3---3---3-|----1---1---1---1---1---1---1---1-|
------3-------3-------3-------3---|------2-------2-------2-------2---|
--1-------1-------1-------1-------|--3-------3-------3-------3-------|
----------------------------------|----------------------------------|
----------------------------------|----------------------------------|


  S S S S S S S S S S S S S S S S    S S S S S S S S S S S S S S S S  
----------------------------------|----2---2---2---2---2---2---2---2-|
----3---3---3---3---5---5---5---5-|------3-------3-------3-------3---|
------3-------3-------5-------5---|--2-------2-------2-------2-------|
--3-------3-------5-------5-------|----------------------------------|
----------------------------------|----------------------------------|
----------------------------------|----------------------------------|


  S S S S S S S S S S S S S S S S    S S S S S S S S S S S S S S S S  
----------------------------------|----------------------------------|
----------------------------------|----4---4---4---4---4---4---4---4-|
----7---7---7---7---7---7---7---7-|------5-------5-------5-------5---|
--5---8---5---8---5---8---5---8---|--6-------6-------6-------6-------|
----------------------------------|----------------------------------|
----------------------------------|----------------------------------|


  S S S S S S S S S S S S S S S S    S S S S S S S S S S S S S S S S  
----------------------------------|----------------------------------|
----3---3---3---3---3---3---3---3-|----3---3---3---3---3---3---3---3-|
------3-------3-------3-------3---|------3-------3-------3-------3---|
--5-------5-------5-------5-------|--2-------2-------2-------2-------|
----------------------------------|----------------------------------|
----------------------------------|----------------------------------|


  S S S S S S S S S S S S S S S S    S S  S S  S H        E.   
----------------------------------|---------8-10--------------|
----4---4---4---4---4---4---4---4-|----8-10-------------------|
------5-------5-------5-------5---|--7------------------------|
--6-------6-------6-------6-------|---------------------------|
----------------------------------|---------------------------|
----------------------------------|---------------------------|


   Q.     S. T Q.     S. T    Q.     S. T Q.     S. T  
--10------L----8------L----|--6------L----8------L----|
---------------------------|--------------------------|
---------------------------|--------------------------|
---------------------------|--------------------------|
---------------------------|--------------------------|
---------------------------|--------------------------|





Riff 2 (guitar 2)


   E  S  S  Q    S S  S.T  S  S  S  S     Q    S S  S  S  E  T T  E.   E   
--------------------------------------|------------12-13-12--L------------|
-----------------------------------13-|--15----L-----------------15---13--|
--12-----------------12---12-14-15----|-----------------------------------|
--------12-12----L--------------------|-----------------------------------|
--------------------------------------|-----------------------------------|
--------------------------------------|-----------------------------------|


   E  T T  S  H.              E  T E.  T  E   E   E   E   E   
-------------15------------|--L--L-----------18--17--18--20--|
--15--L--------------------|-------------15------------------|
----------12---------------|---------------------------------|
---------------------------|---------------------------------|
---------------------------|---------------------------------|
---------------------------|---------------------------------|


   E   S  S  E.  T E  T  E   E   E      E   S  S  Q    E   E   E   E   
--22-----22-27---L------22--20--18--|--20-----20-25-------20--18--17--|
------20----------------------------|------18-------------------------|
------------------------------------|---------------------------------|
------------------------------------|---------------------------------|
------------------------------------|---------------------------------|
------------------------------------|---------------------------------|


                    |--3--|                                 
   E.   S  Q    E   S  S  S  E   E      H.           S E.   
--18--------------------------------|----------------------|
------------------------------------|--15------------L-----|
-------19-19-------17-19-17-15--17--|----------------------|
------------------------------------|----------------------|
------------------------------------|----------------------|
------------------------------------|----------------------|


   E  S  S  Q    E   S.T  S  S  S  S     Q    S S  S  S  E.   E.   E   
-------------------------------------|--------------------------------|
----------------------------------13-|--15----L---16-18-16---15---13--|
--12----------------12---12-14-15----|--------------------------------|
--------12-12------------------------|--------------------------------|
-------------------------------------|--------------------------------|
-------------------------------------|--------------------------------|


   E.   S  Q    S S  E   E   E      Q    S S  E   E   E   E   E   
------------------------15------|--18----L---17------17--18--20--|
----------15----L-----------15--|----------------20--------------|
--15---12-----------15----------|--------------------------------|
--------------------------------|--------------------------------|
--------------------------------|--------------------------------|
--------------------------------|--------------------------------|


   E   S  S  E.  T E  T  E.   E.      E.   E.   E   E.   E.   E   
--22--20-22-23---L------25---23---|--22------------20---18---17--|
----------------------------------|-------22---23----------------|
----------------------------------|------------------------------|
----------------------------------|------------------------------|
----------------------------------|------------------------------|
----------------------------------|------------------------------|


   H.           Q        H.           E.  T T    W                 
---------------------|--27------------L---L---|-------------------|
--20-----------------|------------------------|-------------------|
---------------------|------------------------|-------------------|
---------------------|------------------------|-------------------|
---------------------|------------------------|-------------------|
---------------------|------------------------|-------------------|





Riff 2b (guitar 1)

  S S S S S S S S S S S S S S S S    S S S S S S S S S S S S S S S S  
----------------------------------|----------------------------------|
----------------------------------|----5---5---5---5---5---5---5---5-|
----7---7---7---7---7---7---7---7-|------5-------5-------5-------5---|
--5---8---5---8---5---8---5---8---|--5-------5-------5-------5-------|
----------------------------------|----------------------------------|
----------------------------------|----------------------------------|


  S S S S S S S S S S S S S S S S    S S S S S S S S S S S S S S S S  
----------------------------------|----------------------------------|
----6---6---6---6---6---6---6---6-|----5---5---5---5---5---5---5---5-|
------7-------7-------7-------7---|------5-------5-------5-------5---|
--5-------5-------5-------5-------|--5-------5-------5-------5-------|
----------------------------------|----------------------------------|
----------------------------------|----------------------------------|




Riff 3 (guitar 1)


  S S S S S S S S S S S S S S S S    S S S S S S S S S S S S S S S S  
----------------------------------|----1---1---1---1---1---1---1---1-|
----4---4---4---4---4---4---4---4-|------2-------2-------2-------2---|
------4-------4-------4-------4---|--1-------1-------1-------1-------|
--6-------6-------6-------6-------|----------------------------------|
----------------------------------|----------------------------------|
----------------------------------|----------------------------------|


  S S S S S S S S S S S S S S S S    S S S S S S S S S S S S S S S S  
----2---2---2---2---2---2---2---2-|----1---1---1---1---1---1---1---1-|
------4-------4-------4-------4---|------2-------2-------2-------2---|
--1-------1-------1-------1-------|--1-------1-------1-------1-------|
----------------------------------|----------------------------------|
----------------------------------|----------------------------------|
----------------------------------|----------------------------------|


  S S S S S S S S S S S S S S S S    S S S S S S S S S S S S S S S S  
----------------------------------|----1---1---1---1---1---1---1---1-|
----4---4---4---4---4---4---4---4-|------2-------2-------2-------2---|
--1---4---1---4---1---4---1---4---|--1-------1-------1-------1-------|
----------------------------------|----------------------------------|
----------------------------------|----------------------------------|
----------------------------------|----------------------------------|


  S S S S S S S S S S S S S S S S    S S S S S S S S S S S S S S S S  
----2---2---2---2---2---2---2---2-|----1---1---1---1---1---1---1---1-|
------4-------4-------4-------4---|------2-------2-------2-------2---|
--1-------1-------1-------1-------|--1-------1-------1-------1-------|
----------------------------------|----------------------------------|
----------------------------------|----------------------------------|
----------------------------------|----------------------------------|


  S S S S S S S S S S S S S S S S    S S S S S S S S S S S S S S S S  
----------------------------------|----------------------------------|
----4---4---4---4---4---4---4---4-|----2---2---2---2---2---2---2---2-|
------4-------4-------4-------4---|------3-------3-------3-------3---|
--2-------2-------2-------2-------|--4-------4-------4-------4-------|
----------------------------------|----------------------------------|
----------------------------------|----------------------------------|


  S S S S S S S S S S S S S S S S    S S S S S S S S S S S S S S S S  
----------------------------------|----3---3---3---3---3---3---3---3-|
----4---4---4---4---6---6---6---6-|------4-------4-------4-------4---|
------4-------4-------6-------6---|--3-------3-------3-------3-------|
--4-------4-------6-------6-------|----------------------------------|
----------------------------------|----------------------------------|
----------------------------------|----------------------------------|


  S S S S S S S S S S S S S S S S    S S S S S S S S S S S S S S S S  
----------------------------------|----0---0---0---0---0---0---0---0-|
----4---4---4---4---4---4---4---4-|------2-------2-------2-------2---|
--1---4---1---4---1---4---1---4---|--2-------2-------2-------2-------|
----------------------------------|----------------------------------|
----------------------------------|----------------------------------|
----------------------------------|----------------------------------|


  S S S S S S S S S S S S S S S S    S S S S S S S S S S S S S S S S  
----------------------------------|----------------------------------|
----4---4---4---4---4---4---4---4-|----4---4---4---4---4---4---4---4-|
--1---4---1---4---1---4---1---4---|------4-------4-------4-------4---|
----------------------------------|--3-------3-------3-------3-------|
----------------------------------|----------------------------------|
----------------------------------|----------------------------------|


  S S S S S S S S S S S S S S S S    S S  S S  S H        E.   
----0---0---0---0---0---0---0---0-|---------9-11--------------|
------2-------2-------2-------2---|----9-11-------------------|
--2-------2-------2-------2-------|--8------------------------|
----------------------------------|---------------------------|
----------------------------------|---------------------------|
----------------------------------|---------------------------|


   Q.     S. T Q.     S. T    Q.     S. T Q.     S. T    W                 
--11------L----9------L----|--7------L----9------L----|-------------------|
---------------------------|--------------------------|-------------------|
---------------------------|--------------------------|-------------------|
---------------------------|--------------------------|-------------------|
---------------------------|--------------------------|-------------------|
---------------------------|--------------------------|-------------------|




Riff 3 (guitar 2)


  E  S S Q    T S. S. T S  S  S S     Q    S S  S  S  E.   E.   E   
--------------------------------9-|--11----L---13-14-13---11-------|
--9----------------9----9-11-12---|----------------------------14--|
-------8-8----L-------------------|--------------------------------|
----------------------------------|--------------------------------|
----------------------------------|--------------------------------|
----------------------------------|--------------------------------|


   E  S  S  H.              E  Q     E   E   E   E   E   
-----------16------------|--L-----------19--18--19--21--|
--16---------------------|----------16------------------|
--------13---------------|------------------------------|
-------------------------|------------------------------|
-------------------------|------------------------------|
-------------------------|------------------------------|


   E   S  S  E.  T E  T  E   E   E      E   S  S  Q    E   E   E   E   
--23-----23-28---L------23--21--19--|--21-----21-26-------21--19--18--|
------21----------------------------|------19-------------------------|
------------------------------------|---------------------------------|
------------------------------------|---------------------------------|
------------------------------------|---------------------------------|
------------------------------------|---------------------------------|


                        |--3--|                               
   E  S  S  E.  T E  T  S  S  S  E   E      W                 
--19------------------------------------|--------------------|
----------------------------------------|--16----------------|
--------20-20---L------18-20-18-16--18--|--------------------|
----------------------------------------|--------------------|
----------------------------------------|--------------------|
----------------------------------------|--------------------|


   E  S  T T  Q    S S  S.T  S  S  S  S     Q    S S  S  S  E.   E.   E   
----------------------------------------|--------------------------------|
-------------------------------------14-|--16----L---17-19-17---16---14--|
--13-------------------13---13-15-16----|--------------------------------|
--------13---13----L--------------------|--------------------------------|
----------------------------------------|--------------------------------|
----------------------------------------|--------------------------------|


   E.   S  Q    S S  E   E   E      Q    S. T  E   E   E   E   E   
------------------------16------|--19----L----18--16--18--19--21--|
----------16----L-----------16--|---------------------------------|
--16---13-----------16----------|---------------------------------|
--------------------------------|---------------------------------|
--------------------------------|---------------------------------|
--------------------------------|---------------------------------|


   E   S  S  Q    E   E.   E.      E.   E.   E   E.   E.   E   
--23--21-23-24-------26---24---|--23------------21---19---18--|
-------------------------------|-------23---24----------------|
-------------------------------|------------------------------|
-------------------------------|------------------------------|
-------------------------------|------------------------------|
-------------------------------|------------------------------|


   W                    W                   W                 
--------------------|--28----------------|-------------------|
--21----------------|--------------------|-------------------|
--------------------|--------------------|-------------------|
--------------------|--------------------|-------------------|
--------------------|--------------------|-------------------|
--------------------|--------------------|-------------------|






Duration Legend
---------------
W - whole
H - half
Q - quarter
E - 8th
S - 16th
T - 32nd
X - 64th
. - note dotted
|-n-|  - n-tuplets


Tablature Legend
----------------
L - tied note
x - dead note
g - grace note
(n) - ghost note
> - accentuded note
NH - natural harmonic
AH - artificial harmonic
TH - tapped harmonic
SH - semi harmonic
PH - pitch harmonic
h - hammer on
p - pull off
b - bend
br - bendRelease
pb - preBend
pbr - preBendRelease
brb - bendReleaseBend
\n/ - tremolo bar dip
\n - tremolo bar dive
-/n - tremolo bar Release up
/n\ - tremolo bar inverted dip
/n - tremolo bar return
-\n - tremolo bar Release down
S - shift slide
s - legato slide
/ -  slide into from below or out of upwards
\ -  slide into from above or out of downwards
~ - vibrato
W - wide vibrato
tr - trill
TP - tremolo picking
T - tapping
S - slap
P - pop
< - fade in
^ - brush up
v - brush down

            
            
Suggest correction
Creating personal tab
Creating personal tab
You can edit any tab online and save it as your Personal.

You can edit, replace or remove any tab part or add personal notes – all changes will be seen only by you.

Personal tabs can be accessed anytime from any device, even offline.
Learn more »
Give kudos to tab author, rate the tab!
1 2 3 4 5
comments
print report bad tab
2 comments total.
0 reply
linus.davermo 10 Oct 01, 2017 01:34 PM

Sure it's good, but holy sh#t. Do you really need ALL those key letters???

0 reply
deathx88 9,020 Oct 01, 2017 03:12 PM

This is the way it exports from Guitar Pro. Some people like to have have the notations so it's easier to tell if the tab is in correct time signature.

guest
You may want to rate the tab now too:
select rating
Wanna post a correction for this tab? Suggest correction