Oops, an error
Loading. Please wait.

Mega Man 3 - Snake Man tab

version 1
version 1

Whole song

Interactive

85 views 9 this week
no commentswrite comment
1 2 3 4 5
3 more votes to show rating
add to favorites
×
Save as Personal and add changes to this tab that will be seen only by you. Learn more ›
×
You can save this tab as Personal to edit and correct it or add notes. All changes will be seen only by you. Learn more »
launch autoscroll
font size
0
reset
how to read this tab
guitar tuner
edit
Autoscroll
slow
fast
+/-
esc
set tempo
stop
#----------------------------------PLEASE NOTE---------------------------------#
#This file is the author's own work and represents their interpretation of the #
#song. You may only use this file for private study, scholarship, or research. #
#------------------------------------------------------------------------------##

Mega Man 3 (NES) - Snake Man theme

Gtr I (E A D G B E) - 'Sawtooth'
Gtr II (E A D G B E) - 'Sawtooth Echo'
Gtr III (E A D G B E) - 'Squarewave'

   Q=150
   Gtr I
    S  E  S  E  S  S  +S   S  E  E  E    S  E  S  E  S  S  +S   S  E  E  E
e|-14-14-14-14-14-14-(14)-14-14-15-15-|-14-14-14-14-14-14-(14)-14-14-15-15----|
B|-12-12-12-12-12-12-(12)-12-12-13-13-|-12-12-12-12-12-12-(12)-12-12-13-13----|
G|------------------------------------|---------------------------------------|
D|------------------------------------|---------------------------------------|
A|------------------------------------|---------------------------------------|
E|------------------------------------|---------------------------------------|


                                                            ~~~~
      E.      S  E     Q     E  E  E    E.      S E     E  +H
e||-------------------------------10-|-11------11------10-(10)----|
B||o------------------------11-13----|----------------------------|
G||--10------10-12----13-------------|----------------------------|
D||----------------------------------|----------------------------|
A||o---------------------------------|----------------------------|
E||----------------------------------|----------------------------|
|
 |   Gtr II
 |    E   E.        S  E  Q     E  E    E   E.       S  E   H
e||----------------------------------|-10--11-------11-----10-----|
B||o---------------------------11-13-|----------------------------|
G||------10--------10-12-13----------|----------------------------|
D||----------------------------------|----------------------------|
A||o---------------------------------|----------------------------|
E||----------------------------------|----------------------------|


     E.      S  E     Q     E  E  E    E.      S  E     Q     E  E  E
e|--16------16-15----13----------13-|-13------13----------------------|
B|-------------------------13-16----|------------16----13-------------|
G|----------------------------------|------------------------15-13-12-|
D|----------------------------------|---------------------------------|
A|----------------------------------|---------------------------------|
E|----------------------------------|---------------------------------|
|
 |  +E   E.        S  E  Q     E  E    E   E.        S  E  Q     E  E
e|-(10)-16--------16-15-13----------|-13--13--------13----------------|
B|----------------------------13-16-|------------------16-13----------|
G|----------------------------------|---------------------------15-13-|
D|----------------------------------|---------------------------------|
A|----------------------------------|---------------------------------|
E|----------------------------------|---------------------------------|


                                                          ~~~~
    E.      S  E     Q     E  E  E    E.      S E     E  +H
e|------------------------------10-|-11------11------10-(10)----|
B|------------------------11-13----|----------------------------|
G|-10------10-12----13-------------|----------------------------|
D|---------------------------------|----------------------------|
A|---------------------------------|----------------------------|
E|---------------------------------|----------------------------|
|
 |  E   E.        S  E  Q     E  E    E   E.       S  E   H
e|---------------------------------|-10--11-------11-----10-----|
B|---------------------------11-13-|----------------------------|
G|-12--10--------10-12-13----------|----------------------------|
D|---------------------------------|----------------------------|
A|---------------------------------|----------------------------|
E|---------------------------------|----------------------------|


     E.      S  E     Q     E  E  E    E.      S  E     E  +S   S   E      E  E
e|--13------13-------13----16-15-13-|-13------13-------13-(13)-13---------13------|
B|-------------16-------------------|------------16----------------16--------16---|
G|----------------------------------|---------------------------------------------|
D|----------------------------------|---------------------------------------------|
A|----------------------------------|---------------------------------------------|
E|----------------------------------|---------------------------------------------|
|
 |  +E   E.        S  E  Q     E  E    E   E.        S  E   E      +S   S  E  E
e|-(10)-13--------13----13----16-15-|-13--13--------13-----13-----(13)-13----13---|
B|-------------------16-------------|------------------16-----------------16------|
G|----------------------------------|---------------------------------------------|
D|----------------------------------|---------------------------------------------|
A|----------------------------------|---------------------------------------------|
E|----------------------------------|---------------------------------------------|


    E     E    S S  E     +S   E.      +E     S  S    E     E    S S  E     +S   E.      +E     S  S
e|-------------------------------------------------|-------------------------------------------------|
B|-----------------------------9-------(9)---------|-----------------------------9-------(9)-------9-|
G|-10----10---10-8-10----(10)----------------10--8-|-10----10---10-8-10----(10)----------------10----|
D|-------------------------------------------------|-------------------------------------------------|
A|-------------------------------------------------|-------------------------------------------------|
E|-------------------------------------------------|-------------------------------------------------|
|
 | Gtr III
 |  S  S  S S  S S  S  S   S   S   S S  S  S  S  S    S  S  S S  S S  S  S   S   S   S S  S  S  S  S
e|-------------------------------------------------|-------------------------------------------------|
B|----------9--9-9-11-11-------------9--9--9-11-11-|----------9--9-9-11-11-------------9--9--9-11-11-|
G|-10-10-10---------------10--10--10---------------|-10-10-10---------------10--10--10---------------|
D|-------------------------------------------------|-------------------------------------------------|
A|-------------------------------------------------|-------------------------------------------------|
E|-------------------------------------------------|-------------------------------------------------|


                                                                             ~~~~
    E     S  S  E    E     E.        S  E    E       E     E    S  S  E     +H
e|------------------------------------------------|--------------------------------------------------|
B|-13----11-11------------------------------11----|-11-----------------------------------------------|
G|-------------13---13----10--------10-13---------|-------10---10----10----(10)----------------------|
D|------------------------------------------------|---------------13---------------------------------|
A|------------------------------------------------|--------------------------------------------------|
E|------------------------------------------------|--------------------------------------------------|
|
 |  S  S  S  S  S S  S  S  S   S  S  S  S S  S  S    S  S  S S  S  S  S  S   S   S  S S S S  S  S
e|------------------------------------------------|--------------------------------------------------|
B|-----------9--9-9-11-11------------9--9-9-11-11-|----------9--9--9-11-11------------9-9-9-11-11----|
G|-10-10-10---------------10--10-10---------------|-10-10-10----------------10--10-10----------------|
D|------------------------------------------------|--------------------------------------------------|
A|------------------------------------------------|--------------------------------------------------|
E|------------------------------------------------|--------------------------------------------------|


    E     E    S  S  E     +Q           E    E       E     E    S  S  E     +S   E.       E    E
e|------------------------------------------------|-------------------------------------------------|
B|------------------------------------------------|-----------------------------11------------------|
G|-13----12---12----------------------------10----|-13----12---12------------------------13---12----|
D|---------------13-10----(10)---------13---------|---------------13-10----(10)---------------------|
A|------------------------------------------------|-------------------------------------------------|
E|------------------------------------------------|-------------------------------------------------|
|
 |  S  S  S S  S  S  S  S   S   S  S S  S S  S  S    S  S  S S  S  S  S  S   S   S   S S  S S  S  S
e|------------------------------------------------|-------------------------------------------------|
B|------------------------------------------------|-------------------------------------------------|
G|----------8--8--8-10-10------------8--8-8-10-10-|----------8--8--8-10-10-------------8--8-8-10-10-|
D|-10-10-10----------------10--10-10--------------|-10-10-10----------------10--10--10--------------|
A|------------------------------------------------|-------------------------------------------------|
E|------------------------------------------------|-------------------------------------------------|


                                                                              ~~~~
    E     E    S  S  E     +S   E.       E    E       E     E    S  S  E     +H
e|-----------------------------16-------15---13----|-15----13---15-16-13----(13)----------------------|
B|-------------------------------------------------|--------------------------------------------------|
G|-13----12---10----10----(10)---------------------|--------------------------------------------------|
D|---------------13--------------------------------|--------------------------------------------------|
A|-------------------------------------------------|--------------------------------------------------|
E|-------------------------------------------------|--------------------------------------------------|
|
 |  S  S  S S  S  S  S  S   S   S   S S  S S  S  S    S  S  S S  S  S  S  S   S   S  S S S S  S  S
e|-------------------------------------------------|--------------------------------------------------|
B|----------9--9--9-11-11-------------9--9-9-11-11-|----------9--9--9-11-11------------9-9-9-11-11----|
G|-10-10-10----------------10--10--10--------------|-10-10-10----------------10--10-10----------------|
D|-------------------------------------------------|--------------------------------------------------|
A|-------------------------------------------------|--------------------------------------------------|
E|-------------------------------------------------|--------------------------------------------------|


                                                ~~
    E.  S  +E   E  E  E  E  E    E.  S  +E   E  H
e|----------------------------|----------------------|
B|----------------------------|----------------------|
G|----------------12-13-12----|-10--10-(10)----10----|
D|-13--13-(13)-10----------13-|-------------13-------|
A|----------------------------|----------------------|
E|----------------------------|----------------------|
|
 |                               ~~~
 |  H.                   Q       W
e|----------------------------|----------------------|
B|-11-------------------13----|----------------------|
G|----------------------------|-10-------------------|
D|----------------------------|----------------------|
A|----------------------------|----------------------|
E|----------------------------|----------------------|


                                              ~~
    E.  S  +E   E  E  E  E  E    E. S +E   E  H
e|----------------------------|--9--9-(9)----------|
B|----------------------11----|-----------13-13----|
G|-12--12-(12)-12-12-13----12-|--------------------|
D|----------------------------|--------------------|
A|----------------------------|--------------------|
E|----------------------------|--------------------|
|
 |                               ~~~
 |  H.                   Q       W
e|----------------------------|--------------------|
B|-11-------------------------|--------------------|
G|----------------------13----|--------------------|
D|----------------------------|-13-----------------|
A|----------------------------|--------------------|
E|----------------------------|--------------------|


                                                        ~~~~
    E.  S  +E   E     E   E  E  E       Q    E.     S  +H
e|-----------------------------------|------------------------|
B|-11--11-(11)-----------14-13-------|------11-----13-(13)----|
G|-------------13----12--------12----|-13---------------------|
D|-----------------------------------|------------------------|
A|-----------------------------------|------------------------|
E|-----------------------------------|------------------------|
|
 |                                                      ~~~~~~~
 |  Q.          S  S  Q.        S  S    Q.       S  S   H
e|-----------------------------------|------------------------|
B|-----------------------------------|-------------11--13-----|
G|--------------------9--------10-12-|-13-------13------------|
D|-10----------10-12-----------------|------------------------|
A|-----------------------------------|------------------------|
E|-----------------------------------|------------------------|


                                                              ~~
    E.  S  +E   E   E      E     E     E       E.  S  +E   E  H
e|------------------------------------------|-----------------------||
B|------------------------------------------|-14--14-(14)-13-13----o||
G|-10--10-(10)-10--10-----12----13----10----|-----------------------||
D|------------------------------------------|-----------------------||
A|------------------------------------------|----------------------o||
E|------------------------------------------|-----------------------||
|
 |~~~~~                                                       ~~
 |  H              +S   S  S  S  S  S  S  S    Q.          E  H
e|-13-------------(13)----------------------|-----------------------||
B|---------------------17-16-15-14----------|-14----------13-13----o||
G|---------------------------------17-15-13-|-----------------------||
D|------------------------------------------|-----------------------||
A|------------------------------------------|----------------------o||
E|------------------------------------------|-----------------------||



************************************

| (n)  Ghost note

************************************

            
            
Suggest correction
Creating personal tab
Creating personal tab
You can edit any tab online and save it as your Personal.

You can edit, replace or remove any tab part or add personal notes – all changes will be seen only by you.

Personal tabs can be accessed anytime from any device, even offline.
Learn more »
Give kudos to tab author, rate the tab!
1 2 3 4 5
comments
print report bad tab
guest
You may want to rate the tab now too:
select rating
Wanna post a correction for this tab? Suggest correction