Oops, an error
Loading. Please wait.

Mega Man 3 - Spark Man tab

version 1
version 1

Whole song

Interactive

43 views 3 this week
no commentswrite comment
1 2 3 4 5
3 more votes to show rating
add to favorites
×
Save as Personal and add changes to this tab that will be seen only by you. Learn more ›
×
You can save this tab as Personal to edit and correct it or add notes. All changes will be seen only by you. Learn more »
launch autoscroll
font size
0
reset
how to read this tab
guitar tuner
edit
Autoscroll
slow
fast
+/-
esc
set tempo
stop
#----------------------------------PLEASE NOTE---------------------------------#
#This file is the author's own work and represents their interpretation of the #
#song. You may only use this file for private study, scholarship, or research. #
#------------------------------------------------------------------------------##

Mega Man 3 (NES) - Spark Man theme

Gtr I (E A D G B E) - 'Squarewave'
Gtr II (E A D G B E) - 'Tremolo Strings'
Gtr III (E A D G B E) - 'Strings'
Gtr IV (E A D G B E) - 'Sawtooth'
Gtr V (E A D G B E) - 'Electric Piano'

   Q=135
   Gtr I
                                                      ~~~
    Q.                S  S  Q          E.        S    Q.                S S  E     S S  E     S  S
e|-------------------------------------------------|-----------------------------------------------|
B|-------------------------11---------10-----------|--8--------------------------------------------|
G|--7-----------------7-10----------------------10-|-------------------10-9-10-----9-7--9-----7----|
D|-------------------------------------------------|--------------------------------------------10-|
A|-------------------------------------------------|-----------------------------------------------|
E|-------------------------------------------------|-----------------------------------------------|
|
 | Gtr II
 |  S   S  S S  S  S  S  S  S  S  S S  S   S  S  S    S   S  S S  S  S  S S  S  S  S S  S  S  S  S
e|-------------------------------------------------|-----------------------------------------------|
B|-10--11-10-8-10-11-10--8-10-11-10-8-10--11-10--8-|-10--11-10-8-10-11-10-8-10-11-10-8-10-11-10--8-|
G|-------------------------------------------------|-----------------------------------------------|
D|-------------------------------------------------|-----------------------------------------------|
A|-------------------------------------------------|-----------------------------------------------|
E|-------------------------------------------------|-----------------------------------------------|
|
 | Gtr III
 |  W                                                 W
e|-------------------------------------------------|-----------------------------------------------|
B|--8----------------------------------------------|--8--------------------------------------------|
G|--7----------------------------------------------|--9--------------------------------------------|
D|--8----------------------------------------------|-10--------------------------------------------|
A|-------------------------------------------------|-----------------------------------------------|
E|-------------------------------------------------|-----------------------------------------------|


                                                      ~~~
    Q.                S  S  Q          E.        S    Q.                S S  E     E    E     E
e|-------------------------------------------------|--8-------------------8-10-----8-----------------|
B|--8-----------------8-10-11---------10--------11-|-------------------11--------------11----10------|
G|-------------------------------------------------|-------------------------------------------------|
D|-------------------------------------------------|-------------------------------------------------|
A|-------------------------------------------------|-------------------------------------------------|
E|-------------------------------------------------|-------------------------------------------------|
|
 |  S   S  S S  S  S  S  S  S  S  S S  S   S  S  S    S   S  S S  S  S  S S  S  S  S S  S  S  S S
e|-------------------------------------------------|-------------------------------------------------|
B|-10--11-10-8-10-11-10--8-10-11-10-8-10--11-10--8-|-10--11-10-8-10-11-10-8-10-11-10-8-10-11-10-8----|
G|-------------------------------------------------|-------------------------------------------------|
D|-------------------------------------------------|-------------------------------------------------|
A|-------------------------------------------------|-------------------------------------------------|
E|-------------------------------------------------|-------------------------------------------------|
|
 |  W                                                 H                      H
e|-------------------------------------------------|-------------------------8-----------------------|
B|--8----------------------------------------------|-10---------------------10-----------------------|
G|--8----------------------------------------------|-10---------------------10-----------------------|
D|--8----------------------------------------------|-10----------------------------------------------|
A|-------------------------------------------------|-------------------------------------------------|
E|-------------------------------------------------|-------------------------------------------------|


                                                      ~~~
    Q.                S  S  Q          E.        S    Q.                S S  E     S S  E     S  S
e|-------------------------------------------------|-----------------------------------------------|
B|-------------------------11---------10-----------|--8--------------------------------------------|
G|--7-----------------7-10----------------------10-|-------------------10-9-10-----9-7--9-----7----|
D|-------------------------------------------------|--------------------------------------------10-|
A|-------------------------------------------------|-----------------------------------------------|
E|-------------------------------------------------|-----------------------------------------------|
|
 |  S   S  S S  S  S  S  S  S  S  S S  S   S  S  S    S   S  S S  S  S  S S  S  S  S S  S  S  S  S
e|-------------------------------------------------|-----------------------------------------------|
B|-10--11-10-8-10-11-10--8-10-11-10-8-10--11-10--8-|-10--11-10-8-10-11-10-8-10-11-10-8-10-11-10--8-|
G|-------------------------------------------------|-----------------------------------------------|
D|-------------------------------------------------|-----------------------------------------------|
A|-------------------------------------------------|-----------------------------------------------|
E|-------------------------------------------------|-----------------------------------------------|
|
 |  W                                                 W
e|-------------------------------------------------|-----------------------------------------------|
B|--8----------------------------------------------|--8--------------------------------------------|
G|--7----------------------------------------------|--9--------------------------------------------|
D|--8----------------------------------------------|-10--------------------------------------------|
A|-------------------------------------------------|-----------------------------------------------|
E|-------------------------------------------------|-----------------------------------------------|


                                                      ~~~
    Q.                S  S  Q          E.        S    Q.                S S  E    E     E     E
e|-------------------------------------------------|--8-------------------8-10----8-------------------|
B|--8-----------------8-10-11---------10--------11-|-------------------11--------------11----10-------|
G|-------------------------------------------------|--------------------------------------------------|
D|-------------------------------------------------|--------------------------------------------------|
A|-------------------------------------------------|--------------------------------------------------|
E|-------------------------------------------------|--------------------------------------------------|
|
 |  S   S  S S  S  S  S  S  S  S  S S  S   S  S  S    S   S  S S  S  S  S S  S S  S  S  S  S  S  S
e|-------------------------------------------------|--------------------------------------15-16-18----|
B|-10--11-10-8-10-11-10--8-10-11-10-8-10--11-10--8-|-10--11-10-8-10-11-10-8--8-8-10-11-15-------------|
G|-------------------------------------------------|--------------------------------------------------|
D|-------------------------------------------------|--------------------------------------------------|
A|-------------------------------------------------|--------------------------------------------------|
E|-------------------------------------------------|--------------------------------------------------|
|
 |  W                                                 H                      H
e|-------------------------------------------------|-------------------------8------------------------|
B|--8----------------------------------------------|-10---------------------10------------------------|
G|--8----------------------------------------------|-10---------------------10------------------------|
D|--8----------------------------------------------|-10-----------------------------------------------|
A|-------------------------------------------------|--------------------------------------------------|
E|-------------------------------------------------|--------------------------------------------------|


     Gtr IV
     Q    E.    S E  Q      S  S    Q     E.    S E  Q      S  S
e||------------------------------|-------------------------------|
B||o-8----8-------8-11-----------|--8-----8-------8-11-----------|
G||------------10-----------7-10-|-------------10-----------7-10-|
D||------------------------------|-------------------------------|
A||o-----------------------------|-------------------------------|
E||------------------------------|-------------------------------|
|
 |   Gtr V
 |   E E  S  E  S E  E  S E    S    E  E  S  E  S E  E  S E    S
e||------------------------------|-------------------------------|
B||o-8-------8--8-8-------8----8-|--8--------8--8-8-------8----8-|
G||----7-10----------7-10--------|-----7-10----------7-10--------|
D||------------------------------|-------------------------------|
A||o-----------------------------|-------------------------------|
E||------------------------------|-------------------------------|
|
 |   W                             +W
e||--6---------------------------|-(6)---------------------------|
B||o-8---------------------------|-(8)---------------------------|
G||--7---------------------------|-(7)---------------------------|
D||--8---------------------------|-(8)---------------------------|
A||o-----------------------------|-------------------------------|
E||------------------------------|-------------------------------|


                 ~~~
    E E  S  E S +H              E.  S  +E   E  E.  S  +E   E
e|--8-8--8----8-(8)----------|--------------------15-(15)-16-|
B|---------11----------------|-16--17-(17)-18-19-------------|
G|---------------------------|-------------------------------|
D|---------------------------|-------------------------------|
A|---------------------------|-------------------------------|
E|---------------------------|-------------------------------|
|
 |  E E  S  E S  E  E  S E S    E.  S  +E   E  E.  S  +E   E
e|---------------------------|--------------------10-(10)-11-|
B|--8-------8-8--8-------8-8-|-11--12-(12)-13-14-------------|
G|----7-10----------7-10-----|-------------------------------|
D|---------------------------|-------------------------------|
A|---------------------------|-------------------------------|
E|---------------------------|-------------------------------|
|
 |  W                           W
e|---------------------------|-11----------------------------|
B|-13------------------------|-13----------------------------|
G|-13------------------------|-13----------------------------|
D|-13------------------------|-------------------------------|
A|---------------------------|-------------------------------|
E|---------------------------|-------------------------------|


   Q    E.    S E  Q      S  S    Q     E.    S E  Q      S  S
e|-----------------------------|-------------------------------|
B|-8----8-------8-11-----------|--8-----8-------8-11-----------|
G|-----------10-----------7-10-|-------------10-----------7-10-|
D|-----------------------------|-------------------------------|
A|-----------------------------|-------------------------------|
E|-----------------------------|-------------------------------|
|
 | E E  S  E  S E  E  S E    S    E  E  S  E  S E  E  S E    S
e|-----------------------------|-------------------------------|
B|-8-------8--8-8-------8----8-|--8--------8--8-8-------8----8-|
G|---7-10----------7-10--------|-----7-10----------7-10--------|
D|-----------------------------|-------------------------------|
A|-----------------------------|-------------------------------|
E|-----------------------------|-------------------------------|
|
 | W                             +W
e|-6---------------------------|-(6)---------------------------|
B|-8---------------------------|-(8)---------------------------|
G|-7---------------------------|-(7)---------------------------|
D|-8---------------------------|-(8)---------------------------|
A|-----------------------------|-------------------------------|
E|-----------------------------|-------------------------------|


                   ~~~
    E E  S  S E   +Q.        E      E.  S  +E   E  E.  S  +E   E
e|--8-8--8----8---(8)------------|--------------------15-(15)-16---|
B|---------11--------------------|-16--17-(17)-18-19---------------|
G|-------------------------------|---------------------------------|
D|-------------------------------|---------------------------------|
A|-------------------------------|---------------------------------|
E|-------------------------------|---------------------------------|
|
 |  E E  S  E   S  E  E  S E   S    E.  S  +E   E  E.  S  +E   E
e|-------------------------------|--------------------10-(10)-11---|
B|--8-------8---8--8-------8---8-|-11--12-(12)-13-14---------------|
G|----7-10------------7-10-------|---------------------------------|
D|-------------------------------|---------------------------------|
A|-------------------------------|---------------------------------|
E|-------------------------------|---------------------------------|
|
 |  W                               W
e|-------------------------------|-11------------------------------|
B|-13----------------------------|-13------------------------------|
G|-13----------------------------|-13------------------------------|
D|-13----------------------------|---------------------------------|
A|-------------------------------|---------------------------------|
E|-------------------------------|---------------------------------|


   Gtr I
    E  E  E  E  S  E  Q   +S     E   E  E  E  S  S  Q     E
e|-15-13----------------------|-13--------------------------|
B|-------16-15-16-15-13--(13)-|-----16-15-13-13----15-------|
G|----------------------------|-----------------16----------|
D|----------------------------|--------------------------17-|
A|----------------------------|-----------------------------|
E|----------------------------|-----------------------------|
|
 | Gtr II
 |  W                            H.                    Q
e|----------------------------|-11--------------------10----|
B|-13-------------------------|-----------------------------|
G|----------------------------|-----------------------------|
D|----------------------------|-----------------------------|
A|----------------------------|-----------------------------|
E|----------------------------|-----------------------------|
|
 |  H           H                H            H
e|-------------13-------------|--------------15-------------|
B|-13----------13-------------|-15-----------15-------------|
G|-12-------------------------|-12--------------------------|
D|-13-------------------------|-----------------------------|
A|----------------------------|-----------------------------|
E|----------------------------|-----------------------------|


    E.  S  +E   E  E.  S  +E   E    E.  S  +E   E  E  E  S  E.
e|-----13-(13)-15-----13-(13)-15-|-----13-(13)-15-13-----------|
B|-16-------------16-------------|-16----------------16-15-----|
G|-------------------------------|-------------------------16--|
D|-------------------------------|-----------------------------|
A|-------------------------------|-----------------------------|
E|-------------------------------|-----------------------------|
|
 |  W                               H.                   Q
e|-------------------------------|-13-------------------11-----|
B|-------------------------------|-----------------------------|
G|-12----------------------------|-----------------------------|
D|-------------------------------|-----------------------------|
A|-------------------------------|-----------------------------|
E|-------------------------------|-----------------------------|
|
 |  H              H                H              H
e|-11-------------11-------------|-13-------------11-----------|
B|-13-------------11-------------|-13-------------11-----------|
G|-12-------------12-------------|-13--------------------------|
D|-------------------------------|-----------------------------|
A|-------------------------------|-----------------------------|
E|-------------------------------|-----------------------------|


    E  E  E  E  S  E  Q   +S     E   E  E  E  S  S  Q     E
e|-15-13----------------------|-13--------------------------|
B|-------16-15-16-15-13--(13)-|-----16-15-13-13----15-------|
G|----------------------------|-----------------16----------|
D|----------------------------|--------------------------17-|
A|----------------------------|-----------------------------|
E|----------------------------|-----------------------------|
|
 |  W                            H.                    Q
e|----------------------------|-11--------------------10----|
B|-13-------------------------|-----------------------------|
G|----------------------------|-----------------------------|
D|----------------------------|-----------------------------|
A|----------------------------|-----------------------------|
E|----------------------------|-----------------------------|
|
 |  H           H                H            H
e|-------------13-------------|--------------15-------------|
B|-13----------13-------------|-15-----------15-------------|
G|-12-------------------------|-12--------------------------|
D|-13-------------------------|-----------------------------|
A|----------------------------|-----------------------------|
E|----------------------------|-----------------------------|


    E.  S  +E   E  E.  S  +E   E    E   E  S  E  S  Q     Q
e|-----13-(13)-15-----13-(13)-15-|-----------------------------||
B|-16-------------16-------------|-11--11-11-11-11-11----12---o||
G|-------------------------------|-10--10-10-10-10-10----11----||
D|-------------------------------|-----------------------------||
A|-------------------------------|----------------------------o||
E|-------------------------------|-----------------------------||
|
 |  W                               E   E  S  E  S  Q     Q
e|-------------------------------|-----------------------------||
B|-------------------------------|-11--11-11-11-11-11----12---o||
G|-12----------------------------|-10--10-10-10-10-10----11----||
D|-------------------------------|-----------------------------||
A|-------------------------------|----------------------------o||
E|-------------------------------|-----------------------------||
|
 |  H              H                H.                 Q
e|-11-------------11-------------|-----------------------------||
B|-13-------------11-------------|-11-----------------12------o||
G|-12-------------12-------------|-10--------------------------||
D|-------------------------------|-----------------------------||
A|-------------------------------|----------------------------o||
E|-------------------------------|-----------------------------||



************************************

| (n)  Ghost note   

************************************

            
            
Suggest correction
Creating personal tab
Creating personal tab
You can edit any tab online and save it as your Personal.

You can edit, replace or remove any tab part or add personal notes – all changes will be seen only by you.

Personal tabs can be accessed anytime from any device, even offline.
Learn more »
Give kudos to tab author, rate the tab!
1 2 3 4 5
comments
print report bad tab
guest
You may want to rate the tab now too:
select rating
Wanna post a correction for this tab? Suggest correction