Oops, an error
Loading. Please wait.

Mega Man Ii - Crashmans Stage bass

1,098 views 1 this week
no commentswrite comment
1 2 3 4 5
3 more votes to show rating
add to favorites
×
Save as Personal and add changes to this tab that will be seen only by you. Learn more ›
×
You can save this tab as Personal to edit and correct it or add notes. All changes will be seen only by you. Learn more »
launch autoscroll
font size
0
reset
guitar tuner
edit
Autoscroll
slow
fast
+/-
esc
set tempo
stop
Author
=====================================================
Mega Man 2 - Crash Man's Stage
as composed by Takashi Tateishi, Manami Matsumae, and
Yoshihiro Sakaguchi
=====================================================
Tabbed by Mikhajlovich
=====================================================

Tuning: E A D G

LEGEND:

(time values)
Q = quarter note
E = eighth note
S = sixteenth note
. = dotted note (note value increased x 1.5)
R = rest (written within tab)
+, (n) = tied note (i.e., don't play note twice)
o||o xn = play section n number of times


4/4, Tempo = 150

Intro

      E E E E Q  E.  S    +S   S  E  E E E  E E  E
G  |-------------------|-------------------10---11-|
D o|-------------------|---------------------------|o
A o|-10-R-R-7-8--9--10-|-(10)-10-10-10-7-8----9----|o
E  |-------------------|---------------------------| x3


   E E E E Q  E.  S    S S  S S  S S  S S  S E. Q
|-------------------|------------------------------|
|-------------------|------------------------------|
|-10-R-R-7-8--9--10-|-10-R-10-R-10-R-10-R-10-R--R--|
|-------------------|------------------------------|


Section I

    E E E E Q  E.  S    +S   S  E  E E E  E E  E
 |-------------------|-------------------10---11-|
o|-------------------|---------------------------|o
o|-10-R-R-7-8--9--10-|-(10)-10-10-10-7-8----9----|o
 |-------------------|---------------------------| x4


Section II

    E E E E Q  E.  S    +S   S  E  E E Q  Q
 |-------------------|-----------------------|
o|-------------------|-----------------------|
o|-10-R-R-7-8--9--10-|-(10)-10-10-10-7-8--9--|
 |-------------------|-----------------------|


   E E E E Q  E.  S    +S   S  E  E E E  E E  E
|-------------------|-------------------10---11-|
|-------------------|---------------------------|
|-10-R-R-7-8--9--10-|-(10)-10-10-10-7-8----9----|
|-------------------|---------------------------|


   E E E E Q  E.  S    +S   S  E  E E Q  E  E
|-------------------|-------------------------|
|-------------------|-------------------------|
|-10-R-R-7-8--9--10-|-(10)-10-10-10-7-8--9-10-|
|-------------------|-------------------------|


   E E E E Q  E.  S    +S   S  E  E E E  E E  E
|-------------------|-------------------10---11-|
|-------------------|---------------------------|o
|-10-R-R-7-8--9--10-|-(10)-10-10-10-7-8----9----|o
|-------------------|---------------------------| x2


Section III

    E E E E Q  E.  S    +S   S  E  E E E  E E  E
 |-------------------|-------------------10---11-|
o|-------------------|---------------------------|o
o|-10-R-R-7-8--9--10-|-(10)-10-10-10-7-8----9----|o
 |-------------------|---------------------------| x4


Section IV

   E.  E. E. S  S S  S S  S S   E.  E. E  E E S  E  S
 |--------9--9--------------9-|--------7--------------|
o|-7--10-------10-7-10-7-10---|-----9-----------------|o
o|----------------------------|-10--------------------|o
 |----------------------------|-----------8-8-8-10-10-| x3


End

  E.  E. E. S  S S  S S  S S   S E  S  S S  S  E S E Q
|--------9--9--------------9-|-------------12-12-R-R-R--||
|-7--10-------10-7-10-7-10---|-9-9-12-12----------------||
|----------------------------|--------------------------||
|----------------------------|--------------------------||


From End, the song repeats at Section I. Have fun.
 

*************************************************** 
Generated using Power Tab Editor by Brad Larsen -
http://powertab.guitarnetwork.org *
***************************************************

            
            
Suggest correction
Creating personal tab
Creating personal tab
You can edit any tab online and save it as your Personal.

You can edit, replace or remove any tab part or add personal notes – all changes will be seen only by you.

Personal tabs can be accessed anytime from any device, even offline.
Learn more »
Give kudos to tab author, rate the tab!
1 2 3 4 5
comments
print report bad tab
guest
You may want to rate the tab now too:
select rating
Wanna post a correction for this tab? Suggest correction