Oops, an error
Loading. Please wait.

Metro 2033 Theme tab

version 1
version 1

Whole song

Interactive

224,926 views 879 this week
20 commentsread comments
1 2 3 4 5
x 125
add to favorites
×
Save as Personal and add changes to this tab that will be seen only by you. Learn more ›
×
You can save this tab as Personal to edit and correct it or add notes. All changes will be seen only by you. Learn more »
launch autoscroll
font size
0
reset
how to read this tab
guitar tuner
edit
Autoscroll
slow
fast
+/-
esc
set tempo
stop
e|-----------------|-----------------|-----------------|---------------------|
B|-----1-3-----3---|-----0-1---------|-----1-3-----3---|---------------------|
G|---------------2-|-------------4-2-|---------------2-|-4--0--2--4-5-4-2----|
D|---2-2-3---3-----|---3-0-2---2-----|---2-2-3---3-----|---------------------|
A|-0-------0-------|-0-------0-------|-0-------0-------|-------0-------------|
E|-----------------|-----------------|-----------------|-3--0----------------|

e|-----------------|-----------------|-----------------|---------------------|
B|-----1-3-----3---|-----------------|-----1-3-----3---|---------------------|
G|---------------2-|-----4-5-----4-2-|---------------2-|-4--0--2--4-5-4-2----|
D|---2-2-3---3-----|---0-0-2---2-----|---2-2-3---0-----|---------------------|
A|-0-------0-------|---------0-------|-0-------2-------|-------0-------------|
E|-----------------|-3---------------|-----------------|-3--0----------------|

e|-----0-1-----0---|-------------0---|-----------------|---------------------|
B|---------------6-|-----3-5-------3-|-----1-3-----3---|-------1--0----------|
G|---2-0-2---2-----|---2-------2-----|---2-----------2-|-4--0----------------|
D|-----------------|-----3-5---------|-----2-3---3-----|---------------------|
A|-0-------0-------|-0-------0-------|-0-------0-------|---------------------|
E|-----------------|-----------------|-----------------|-3--0--1--3----------|

e|-----0-1-----0---|-------------0---|-----------------|---------------------|
B|---------------5-|-----3-5-------3-|-----1-3-----3---|---------------------|
G|---2-0-2---2-----|---2-------2-----|---2-----------2-|-4--0--2--4-5-4-2----|
D|-----------------|-----3-5---------|-----2-3---3-----|---------------------|
A|-0-------0-------|-0-------0-------|-0-------0-------|-------0-------------|
E|-----------------|-----------------|-----------------|-3--0----------------|

            
            
Suggest correction
Creating personal tab
Creating personal tab
You can edit any tab online and save it as your Personal.

You can edit, replace or remove any tab part or add personal notes – all changes will be seen only by you.

Personal tabs can be accessed anytime from any device, even offline.
Learn more »
comments
print report bad tab
20 comments total. Showing first comments.
+2 reply
guitargrove 51 May 15, 2010 02:55 PM

Wow, this tab is flawless. Good job, and awesome game.

+8 reply
Chigi93 10 Jun 24, 2010 12:27 AM

Awesome tab,heard the song in-game and i just had to play it...thanks for posting....

0 reply
Gwipo 10 Nov 07, 2010 03:03 PM

Sweet. Great guitar songs in this game. Thanks for the tab. :)

guest
You may want to rate the tab now too:
select rating
Wanna post a correction for this tab? Suggest correction