Oops, an error
Loading. Please wait.

Mii Channel Theme intro tab

331 views 6 this week
4 commentsread comments
1 2 3 4 5
x 3
add to favorites
×
Save as Personal and add changes to this tab that will be seen only by you. Learn more ›
×
You can save this tab as Personal to edit and correct it or add notes. All changes will be seen only by you. Learn more »
launch autoscroll
font size
0
reset
how to read this tab
guitar tuner
edit
Autoscroll
slow
fast
+/-
esc
set tempo
stop
About this tab version
An easy version that you can instantly impress your friends with. Was this info helpful? Yes No
Standard Tuning

[Intro]
e|--------9-----------------------------9---------9/12--11--10-------------------|
B|-----7----7-------------------------7---7--------------------------------------|
G|--7----------7--------------------7-------7------------------------------------|
D|----------------6-6-6---6/7----------------------------------------------------|
A|-------------------------------------------------------------------------------|
E|-------------------------------------------------------------------------------|

e|--9---9---9---------------------------------------------9----------------------|
B|-9---7---9---9--7--5---------------------------------7------7------------------|
G|----------------------5--5--5----5--5--5-----9--8--7----------7----------------|
D|-------------------------------------------------------------------6-6-6-------|
A|-------------------------------------------------------------------------------|
E|-------------------------------------------------------------------------------|

e|-12--12--12------------9-------12--10----7--------7------5--------1------------|
B|---------------------7---7-----------------8--------8------6--------3-0--------|
G|-------------------7------7------------------7--6-----6------5--4--------------|
D|--------------6/7--------------------------------------------------------------|
A|-------------------------------------------------------------------------------|
E|-------------------------------------------------------------------------------|

e|--------6h7---9h10---14h17-----------------------------------------------------|
B|-------------------------------------------------------------------------------|
G|-6-6-6-------------------------------------------------------------------------|
D|-----------------------------7--8--9---8-9---8-8-9-15-10-9-8-9-----9-10-11--10-|
A|-------------------------------------------------------------------------------|
E|-------------------------------------------------------------------------------|

e|-------------------------------------------------------------------------------|
B|-------------------------------------------------------------------------------|
G|-------------------------------------------------------------------------------|
D|-11---10-10-11-16-13-11-13-9---------------------------------------------------|
A|-------------------------------------------------------------------------------|
E|-------------------------------------------------------------------------------|



************************************

| /  Slide up
| h  Hammer-on

************************************

            
            
Suggest correction
Creating personal tab
Creating personal tab
You can edit any tab online and save it as your Personal.

You can edit, replace or remove any tab part or add personal notes – all changes will be seen only by you.

Personal tabs can be accessed anytime from any device, even offline.
Learn more »
Give kudos to tab author, rate the tab!
1 2 3 4 5
comments
print report bad tab
4 comments total. Showing first comments.
0 reply
danovanM11 10 Aug 26, 2017 02:10 PM

10 out of 10

0 reply
liamgrady3571 15 Oct 11, 2017 11:10 AM

the guitar community thanks you for your good Dede

0 reply
liamgrady3571 15 Oct 11, 2017 11:11 AM

deed*

guest
You may want to rate the tab now too:
select rating
Wanna post a correction for this tab? Suggest correction