Oops, an error
Loading. Please wait.

Monster Hunter Theme tab

version 1
version 1

Whole song

7,820 views 9 this week
1 commentread comment
1 2 3 4 5
x 5
add to favorites
×
Save as Personal and add changes to this tab that will be seen only by you. Learn more ›
×
You can save this tab as Personal to edit and correct it or add notes. All changes will be seen only by you. Learn more »
launch autoscroll
font size
0
reset
how to read this tab
guitar tuner
edit
Autoscroll
slow
fast
+/-
esc
set tempo
stop
Author
Difficulty
rate and comments appreciated

This is the main theme music to the game (and i think its the theme for the Lao Shan Lung)

Heres how I figure it to be:

I use lots of distortion and wah pedal because I'm a loose cannon and can't be controlled.


i use D# and E# chords for the build up - and start the riff with a big pick scrape.


                             Sweep
E|---------------------------------------------------------------------------------|
B|-----------------------11~-11----------------------------------------------------|
G|-8-xx-8h10*--8----8h10-------10p8h10---8h10h11*--11p10p8h10-/6-------------------|
D|-8-xx-8--------11-------------------11-------------------------/8~~--------------|
A|---------------------------------------------------------------------------------|
E|---------------------------------------------------------------------------------|

                                          
E|---------------------------------------------------------------------------------|
B|-----------------------11~-11-------------------6-7-9~~-/18-161616-1616-16*~~~---|
G|-8-xx-8h10*--8----8h10-------10p8h10----8-10-11~---------------------------------|
D|-8-xx-8--------11-------------------11-------------------------~------------~----|
A|---------------------------------------------------------------------------------|
E|---------------------------------------------------------------------------------|

            
            
Suggest correction
Creating personal tab
Creating personal tab
You can edit any tab online and save it as your Personal.

You can edit, replace or remove any tab part or add personal notes – all changes will be seen only by you.

Personal tabs can be accessed anytime from any device, even offline.
Learn more »
comments
print report bad tab
1 comment total.
0 reply
jak.spittle 20 Mar 09, 2010 05:55 AM

OMGZZZZZZZZZZ!!!!!!!!!!!! A-M-M-M-M-MAZING

guest
You may want to rate the tab now too:
select rating
Wanna post a correction for this tab? Suggest correction