Oops, an error
Loading. Please wait.

More Gun - Meet The Engineer intro tab

757 views 6 this week
2 commentsread comments
1 2 3 4 5
x 4
add to favorites
×
Save as Personal and add changes to this tab that will be seen only by you. Learn more ›
×
You can save this tab as Personal to edit and correct it or add notes. All changes will be seen only by you. Learn more »
launch autoscroll
font size
0
reset
how to read this tab
guitar tuner
edit
Autoscroll
slow
fast
+/-
esc
set tempo
stop
Author
Difficulty
    Song: MORE GUN
Composer:Valve Studio
    Game:Team Fortress 2
    
    My first tab, I would suggest using a pick 

    

E|-----------------------------------------------|
B|--------------2--2--2-----2--2--2-----2--2--2--|
G|--------------2--2--2-----2--2--2-----2--2--2--|  X 2
D|--------------2--2--2-----2--2--2-----2--2--2--|
A|-----------0-----------------------0-----------|
E|--0--2--4--------------0-----------------------|


E|--------------------------------------------------------------2--2--2-----2--2--2-----2--2--2-----2--2--2|
B|--------------2--2--2-----2--2--2-----2--2--2-----------------3--3--3-----3--3--3-----3--3--3-----3--3--3|
G|--------------2--2--2-----2--2--2-----2--2--2-----------------2--2--2-----2--2--2-----2--2--2-----2--2--2|
D|--------------2--2--2-----2--2--2-----2--2--2--2h4p2-------------------------------0---------------------|
A|-----------0-----------------------0------------------4--0-------------0-----------------------0---------|
E|--0--2--4--------------0---------------------------------------------------------------------------------|


E|--2--2--2--2-----2--2--2-----2--2--2------------------------------------------------|
B|--3--3--3--3-----3--3--3-----3--3--3---------------2--2--2-----2--2--2-----2--2--2--|
G|--2--2--2--2-----2--2--2-----2--2--2--2h4p2--------2--2--2-----2--2--2-----2--2--2--|
D|--0-----------------------0------------------4--2--2--2--2-----2--2--2-----2--2--2--|
A|--------------0---------------------------------------------------------0-----------|
E|------------------------------------------------------------0-----------------------|



                And repeat this whole thing 3 times

            
            
Suggest correction
Creating personal tab
Creating personal tab
You can edit any tab online and save it as your Personal.

You can edit, replace or remove any tab part or add personal notes – all changes will be seen only by you.

Personal tabs can be accessed anytime from any device, even offline.
Learn more »
comments
print report bad tab
2 comments total.
0 reply
raymondchu36 10 Sep 05, 2016 09:00 AM

how to play 2h4p2? I am a beginner don't understand it .

0 reply
andretrandafi 10 Sep 17, 2016 01:47 AM

It's called Hammer on(h) and pull off(P). You pick the second fret, then, without picking the next note, you will press the fret with another finger so that you get a sound. Pull off is the opposite. Hope it helped

guest
You may want to rate the tab now too:
select rating
Wanna post a correction for this tab? Suggest correction