Oops, an error
Loading. Please wait.

Night In The Woods - Pumpkin Head Guy bass

991 views 21 this week
1 commentread comment
1 2 3 4 5
x 4
add to favorites
×
Save as Personal and add changes to this tab that will be seen only by you. Learn more ›
×
You can save this tab as Personal to edit and correct it or add notes. All changes will be seen only by you. Learn more »
launch autoscroll
font size
0
reset
guitar tuner
edit
Autoscroll
slow
fast
+/-
esc
set tempo
stop
Author
Difficulty
Overall structure is Verse - Verse - Chorus - Verse - Verse - Chorus - Bridge - Solo - Ending.

Approx. 285 BPM, outside of the rallentando before the bass solo.

[Verse]
   |   |   |   |     |   |   |   |     |   |   |   |     |   |   |   |
G|-----2-----2-----|-------------2---|-----2-----2-----|-------------2---|
D|-0-----0-----0---|-----------------|-0-----0-----0---|-----------------|
A|-----------------|---------3-------|-----------------|---------3-------|
E|-----------------|-----------------|-----------------|-----------------|
   |   |   |   |     |   |   |   |     |   |   |   |     |   |   |   |
G|-----2-----2-----|-------------2---|-----------------|-----------------|
D|-0-----0-----0---|-----------------|-----------------|-----------------|
A|-----------------|---------3-------|-3---------------|-----------------|
E|-----------------|-----------------|-----------------|-----------------|

[Verse]
   |   |   |   |     |   |   |   |     |   |   |   |     |   |   |   |
G|-----2-----2-----|-------------2---|-----2-----2-----|-------------2---|
D|-0-----0-----0---|-----------------|-0-----0-----0---|-----------------|
A|-----------------|---------3-------|-----------------|---------3-------|
E|-----------------|-----------------|-----------------|-----------------|
   |   |   |   |     |   |   |   |     |   |   |   |     |   |   |   |
G|-----2-----2-----|-------------2---|-----------------|-----------------|
D|-0-----0-----0---|-----------------|-----------------|-----------------|
A|-----------------|---------3-------|-3---------------|-----------------|
E|-----------------|-----------------|-----------------|-----------------|

[Chorus]
   |   |   |   |     |   |   |   |     |   |   |   |     |   |   |   |
G|-0---------------|-----------------|-----------------|-----------------|
D|-----------------|-4---------------|-2---------------|-----------------|
A|-----------------|-----------------|-----------------|-----------------| x2
E|-----------------|-----------------|-----------------|-----------------|

[Verse]
   |   |   |   |     |   |   |   |     |   |   |   |     |   |   |   |
G|-----2-----2-----|-------------2---|-----2-----2-----|-------------2---|
D|-0-----0-----0---|-----------------|-0-----0-----0---|-----------------|
A|-----------------|---------3-------|-----------------|---------3-------|
E|-----------------|-----------------|-----------------|-----------------|
   |   |   |   |     |   |   |   |     |   |   |   |     |   |   |   |
G|-----2-----2-----|-------------2---|-----------------|-----------------|
D|-0-----0-----0---|-----------------|-----------------|-----------------|
A|-----------------|---------3-------|-3---------------|-----------------|
E|-----------------|-----------------|-----------------|-----------------|

[Verse]
   |   |   |   |     |   |   |   |     |   |   |   |     |   |   |   |
G|-----2-----2-----|-------------2---|-----2-----2-----|-------------2---|
D|-0-----0-----0---|-----------------|-0-----0-----0---|-----------------|
A|-----------------|---------3-------|-----------------|---------3-------|
E|-----------------|-----------------|-----------------|-----------------|
   |   |   |   |     |   |   |   |     |   |   |   |     |   |   |   |
G|-----2-----2-----|-------------2---|-----------------|-----------------|
D|-0-----0-----0---|-----------------|-----------------|-----------------|
A|-----------------|---------3-------|-3---------------|-----------------|
E|-----------------|-----------------|-----------------|-----------------|

[Chorus]
   |   |   |   |     |   |   |   |     |   |   |   |     |   |   |   |
G|-0---------------|-----------------|-----------------|-----------------|
D|-----------------|-4---------------|-2---------------|-----------------|
A|-----------------|-----------------|-----------------|-----------------| x2
E|-----------------|-----------------|-----------------|-----------------|

[Bridge]
   |   |   |   |     |   |   |   |     |   |   |   |     |   |   |   |
G|-0---0---0---0---|-0---0---0---0---|-----------------|-----------------|
D|-----------------|-----------------|-4---4---4---4---|-4---4---4---4---|
A|-----------------|-----------------|-----------------|-----------------|
E|-----------------|-----------------|-----------------|-----------------|
   |   |   |   |     |   |   |   |     |   |   |   |     |   |   |   |
G|-----------------|-----------------|-----------------|-----------------|
D|-2---2---2---2---|-2---2---2---2---|-2---2---2---2---|-2---2---2---2---|
A|-----------------|-----------------|-----------------|-----------------|
E|-----------------|-----------------|-----------------|-----------------|
(slowing down a lot)
   |   |   |   |     |   |   |   |     |   |   |   |     |   |   |   |
G|-0---0---0---0---|-0---0---0---0---|-----------------|-----------------|
D|-----------------|-----------------|-4---4---4---4---|-4---4---4---4---|
A|-----------------|-----------------|-----------------|-----------------|
E|-----------------|-----------------|-----------------|-----------------|
   |
G|-----------------|
D|-2---------------|
A|-----------------|
E|-----------------|

Pause here, then return to the original tempo for the solo.

[Solo]
   |   |   |   |     |   |   |   |     |   |   |   |     |   |   |   |
G|-----------------|-----------------|-----------------|-----------------|
D|-----------------|-10------12--10--|-----------------|-----------------|
A|---------10--12--|-----12----------|-12--11--10--9---|-8---------------|
E|-10--13----------|-----------------|-----------------|-----10--8---9---|
   |   |   |   |     |   |   |   |     |   |   |   |     |   |   |   |
G|-----------------|-----------------|-----------------|-----------------|
D|-----------------|-10------12--10--|-----------------|-----------------|
A|---------10--12--|-----12----------|-12--11--10--9---|-8---9---10--11--|
E|-10--13----------|-----------------|-----------------|-----------------|
   |   |   |   |     |   |   |   |     |   |   |   |     |   |   |   |
G|-----------------|-----------------|-10-----------12-|---10------------|
D|-----------------|---------10--12--|-------12--------|---------12--11--|
A|--------------10-|---12------------|-----------------|-----------------|
E|-10----13--------|-----------------|-----------------|-----------------|
   |   |   |   |     |   |   |   |     |   |   |   |     |   |   |   |
G|-----------------|-----------------|-----------------|-----------------|
D|-12--------------|-10--------------|-7---------------|-0---------------|
A|---------12------|---------10------|---------4-------|-------3-0---3---|
E|-----------------|-----------------|-----------------|-----------------|

[Ending]
   |   |   |   |     |   |   |   |     |   |   |   |     |   |   |   |
G|-----2-----2-----|-------------2---|-----2-----2-----|-------------2---|
D|-0-----0-----0---|-----------------|-0-----0-----0---|-----------------|
A|-----------------|---------3-------|-----------------|---------3-------|
E|-----------------|-----------------|-----------------|-----------------|
   |   |   |   |     |   |   |   |     |   |   |   |     |   |   |   |
G|-----2-----2-----|-------------2---|-----------------|-----------------|
D|-0-----0-----0---|-----------------|-----------------|-----------------|
A|-----------------|---------3-------|-3---------------|-----------------|
E|-----------------|-----------------|-----------------|-----------------|
   |
G|-----------------|
D|-0---------------|
A|-----------------|
E|-----------------|

            
            
Suggest correction
Creating personal tab
Creating personal tab
You can edit any tab online and save it as your Personal.

You can edit, replace or remove any tab part or add personal notes – all changes will be seen only by you.

Personal tabs can be accessed anytime from any device, even offline.
Learn more »
comments
print report bad tab
1 comment total.
0 reply
thesombreroparty 10 Sep 25, 2017 06:40 PM

good stuff lad

guest
You may want to rate the tab now too:
select rating
Wanna post a correction for this tab? Suggest correction