Oops, an error
Loading. Please wait.

Persona 5 - Layer Cake tab

1,915 views 42 this week
1 commentread comment
1 2 3 4 5
1 last vote to show rating
add to favorites
×
Save as Personal and add changes to this tab that will be seen only by you. Learn more ›
×
You can save this tab as Personal to edit and correct it or add notes. All changes will be seen only by you. Learn more »
launch autoscroll
font size
0
reset
how to read this tab
guitar tuner
edit
Autoscroll
slow
fast
+/-
esc
set tempo
stop
   [0:15 - 0:42]
e|------------------------------------------------------------------------------|
B|------------------------------------------------------------------------------|
G|-------14-12-11------------------11-------13~---------------------------------| 
D|-11-12----------11-12-9~-------------11-12------------------------------------|
A|------------------------------------------------------------------------------|
E|------------------------------------------------------------------------------|

e|------------------------------------------------------------------------------|
B|------------------------------------------------------------------------------|
G|-14----11-------------14----11------------------------------------------------| 
D|----14----12-------------14----12--14/11--------------------------------------|
A|------------------------------------------------------------------------------|
E|------------------------------------------------------------------------------|

e|------------------------------------------------------------------------------|
B|------------------------------------------------------------------------------|
G|-------14-12-11------------------11-------13~---------------------------------| 
D|-11-12----------11-12-9~-------------11-12------------------------------------|
A|------------------------------------------------------------------------------|
E|------------------------------------------------------------------------------|

e|------------------------------------------------------------------------------|
B|------------------------------------------------------------------------------|
G|-14-16----------14-14---------------------------------------------------------| 
D|-------14-16----------14-16/11-11---------------------------------------------|
A|------------------------------------------------------------------------------|
E|------------------------------------------------------------------------------|

The synth kicks in here for about 25-30 seconds. Guitar starts back up again at 
the 1:14 mark

   [1:14 - 1:44]
e|------------------------------------------------------------------------------| 
B|----14-14--12----12-----------------------------------------------------------|
G|-11-----------14----11-14-9-11~-----------------------------------------------| 
D|------------------------------------------------------------------------------|
A|------------------------------------------------------------------------------|
E|------------------------------------------------------------------------------|

e|------------------------------------------------------------------------------|
B|----14-14--15----12-----------------------------------------------------------|
G|-11-----------14----11-14-9/6-~-----------------------------------------------| 
D|------------------------------------------------------------------------------|
A|------------------------------------------------------------------------------|
E|------------------------------------------------------------------------------|

Repeat this section twice.

Part of the synth follows this same pattern until the end/it loops around.

            
            
Suggest correction
Creating personal tab
Creating personal tab
You can edit any tab online and save it as your Personal.

You can edit, replace or remove any tab part or add personal notes – all changes will be seen only by you.

Personal tabs can be accessed anytime from any device, even offline.
Learn more »
Give kudos to tab author, rate the tab!
1 2 3 4 5
comments
print report bad tab
1 comment total.
0 reply
shogo149 10 May 31, 2017 12:28 PM

Am I playing this wrong or...
I can't get it to sound like the song

guest
You may want to rate the tab now too:
select rating
Wanna post a correction for this tab? Suggest correction