Oops, an error
Loading. Please wait.

Persona 5 - Life Will Change Instrumental solo tab

12,538 views 231 this week
11 commentsread comments
1 2 3 4 5
x 11
add to favorites
×
Save as Personal and add changes to this tab that will be seen only by you. Learn more ›
×
You can save this tab as Personal to edit and correct it or add notes. All changes will be seen only by you. Learn more »
launch autoscroll
font size
0
reset
how to read this tab
guitar tuner
edit
Autoscroll
slow
fast
+/-
esc
set tempo
stop
Author
Difficulty
[Intro]
e|---------------------------------------------------------------------------|
B|---------------------------------------------------------------------------|
G|-13-13-13----13-13-13----13-13-13----13-13-13----13--14--------------------| x8
D|-x--x--x-----x--x--x-----x--x--x-----x--x--x-----x---x---------------------|
A|-11-11-11----11-11-11----11-11-11----11-11-11----11--12--------------------|
E|---------------------------------------------------------------------------|

[Solo]
e|---------------------------------------------------------------------------|
B|------------------------------12--14b-14-12--------------------------------|
G|------------------------11-13---------------13~----------------------------|
D|-9-9-11--------9-9-11-13---------------------------------------------------|
A|--------11~----------------------------------------------------------------|
E|---------------------------------------------------------------------------|

e|--------------------------------------------------14-----------------------|
B|----------12-12------------14-14------------14/16----14b-------------------|
G|-13-11-13---------13-11-13---------13-11-13--------------------------------|
D|---------------------------------------------------------------------------|
A|---------------------------------------------------------------------------|
E|---------------------------------------------------------------------------|

e|----------------|     |-----------|     |----14-------------| This fits in
B|-16-12-14----12-| x3  |-12b-11----| x2  |-16----14----12----| somewhere the
G|----------13----|     |-----------|     |----------13-------| second time
D|----------------|     |-----------|     |-------------------| through
A|----------------|     |-----------|     |-------------------|
E|----------------|     |-----------|     |-------------------|

[Bass Rundown]
e|---------------------------------------------------------------------------|
B|---------------------------------------------------------------------------| x4 I tend to stop
G|---------------------------------------------------------------------------|    at the 9th fret
D|---------------------------------------------------------------------------|    on the 4th run
A|---------------------------------------------------------------------------|    down
E|-12-12-11-11-10-10-9-9-8-8-7-7-6-6-5-5-------------------------------------|


e|---------------------------------------------------------------------------|
B|-14-12-14-12-14----12~-------12-12-12-12-14-12-----------------------------|
G|----------------13-----------------------------13~-------------------------|
D|---------------------------------------------------------------------------|
A|---------------------------------------------------------------------------|
E|---------------------------------------------------------------------------|

e|---------------------------------------------------------------------------|
B|-12-12-12-12-14----12~-------------14/16-14-12-14--------------------------|
G|----------------13----------13-13----------------13~-----------------------|
D|---------------------------------------------------------------------------|
A|---------------------------------------------------------------------------|
E|---------------------------------------------------------------------------|

e|---------------------------------------------------------------------------|
B|-14-12-14-12-14---12~-------12-12-12-12-14-12------------------------------|
G|----------------13----------------------------13~--------------------------|
D|---------------------------------------------------------------------------|
A|---------------------------------------------------------------------------|
E|---------------------------------------------------------------------------|

e|----------------------------------------14---------------------------------|
B|-12-12-12-12-14----12-------------14/16----14b-14-12-----------------------|
G|----------------13----------13-13----------------------13------------------|
D|---------------------------------------------------------------------------|
A|---------------------------------------------------------------------------|
E|---------------------------------------------------------------------------|



************************************

| b  Bend
| ~  Vibrato
| /  Slide up
 

************************************

            
            
Suggest correction
Creating personal tab
Creating personal tab
You can edit any tab online and save it as your Personal.

You can edit, replace or remove any tab part or add personal notes – all changes will be seen only by you.

Personal tabs can be accessed anytime from any device, even offline.
Learn more »
comments
print report bad tab
11 comments total. Showing first comments.
+2 reply
kameratyp 10 Apr 26, 2017 06:01 PM

good job. I would replace the 16th fret with a bend on 14. Also wrong string at the last section. 13th should be on G string.
Fine job though!

0 reply
jonsey941 57 Apr 30, 2017 07:48 AM

Corrected. Nice catch!!

+1 reply
Rayintu 10 May 06, 2017 06:38 AM, edited at 10:39 am

I absolutely love this tab, thanks for making it! one quick suggestion though in the part i copied below you can replace the 9 with a 13 on the G string to make ite|----------------| easier to play B|-16-12-14-9-12--|G|----------------| x3 D|----------------| A|----------------| E|----------------|

guest
You may want to rate the tab now too:
select rating
Wanna post a correction for this tab? Suggest correction