Oops, an error
Loading. Please wait.

Pokemon - Littleroot Town tab

version 1
version 1

Whole song

Interactive

13,844 views 183 this week
2 commentsread comments
1 2 3 4 5
x 14
add to favorites
×
Save as Personal and add changes to this tab that will be seen only by you. Learn more ›
×
You can save this tab as Personal to edit and correct it or add notes. All changes will be seen only by you. Learn more »
launch autoscroll
font size
0
reset
how to read this tab
guitar tuner
edit
Autoscroll
slow
fast
+/-
esc
set tempo
stop
Author
Difficulty
e|--------------------------------10-------9-10-12-10------------------10-|
B|-----------10----10----10-11-13----10-10------------10------------10----|
G|-----10-12----12----12---------------------------------12-10-9-10-------|
D|--10--------------------------------------------------------------------|
A|------------------------------------------------------------------------|
E|------------------------------------------------------------------------|



------------------------10-----------------------------------------------|
---------13-11-11-10-------10-10-----------------------13-11-10----10----|
----9-10-------------10----------12-10-9----9-10-12-------------12----12-|
-12--------------------------------------12---------10-------------------|
-------------------------------------------------------------------------|
-------------------------------------------------------------------------|


---------10----------9-10-12-13------------------10----------------------|
10-11-13----10----10------------10------------10-------------13-11-11-10-|
---------------12------------------12-10-9-10-----------9-10-------------|
-----------------------------------------------------12------------------|
-------------------------------------------------------------------------|
-------------------------------------------------------------------------|


---10---------------------------------9-----------------------------------|
------10-10---------------10-11-11-13---11-10------------------10---------|
10----------12-10-9-10-12---------------------12-10-10-9----10----12---10-|
---------------------------------------------------------12----------12---|
--------------------------------------------------------------------------|
--------------------------------------------------------------------------|


------------------------9-12-15-13-12-13-10-12-17-15-10-13-12-12-13-15--|
------------10-11-13-10-------------------------------------------------|
--9-9-10-12-------------------------------------------------------------|
------------------------------------------------------------------------|
------------------------------------------------------------------------|
------------------------------------------------------------------------|

            
            
Suggest correction
Creating personal tab
Creating personal tab
You can edit any tab online and save it as your Personal.

You can edit, replace or remove any tab part or add personal notes – all changes will be seen only by you.

Personal tabs can be accessed anytime from any device, even offline.
Learn more »
comments
print report bad tab
2 comments total.
0 reply
Lannic 10 Oct 28, 2012 07:28 AM

Thanks for the tab, you did a wonderful job there!

+1 reply
adrian.arzp 10 Apr 19, 2014 03:57 PM

---------10----------9-10-12---------------------10----------------------|
10-11-13----10----10------------10------------10-------------13-11-11-10-|
---------------12------------------12-10-9-10-----------9-10-------------|
-----------------------------------------------------12------------------|
-------------------------------------------------------------------------|
-------------------------------------------------------------------------|

guest
You may want to rate the tab now too:
select rating
Wanna post a correction for this tab? Suggest correction