Oops, an error
Loading. Please wait.

Pokemon Go - Walking tab

5,110 views 9 this week
no commentswrite comment
1 2 3 4 5
1 last vote to show rating
add to favorites
×
Save as Personal and add changes to this tab that will be seen only by you. Learn more ›
×
You can save this tab as Personal to edit and correct it or add notes. All changes will be seen only by you. Learn more »
launch autoscroll
font size
0
reset
how to read this tab
guitar tuner
edit
Autoscroll
slow
fast
+/-
esc
set tempo
stop
Author
Difficulty
=============================================================================================
                                  Pokemon Go Soundtrack
=============================================================================================


[Very start Intro, isn't played when the melody actually repeats]
|--------------------------------------------------------------------|
|--------------------------------------------------------------------|
|-Repeat each note 16 times------------------------------------------|
|--------------------------------------------------------------------|
|-3------1------3------1-------------1------3------3-----------------|
|-----------------------------4--------------------------------------|
  *      *      *      *      *      *      *      *

[Intro, Included when the song repeats]
|--------------------------------------------------------------------|
|--------------------------------------------------------------------|
|--------------------------------------------------------------------|
|--------------------------------------------------------------------|
|-3-3-3-3-3-3-3-3-3-3-3-3-3-3-3-353-3-3-3-3-3-3-3-3-3-3-3-3-3-3-3----|
|--------------------------------------------------------------------|
  * * * * * * * * * * * * * * * *** * * * * * * * * * * * * * * *



[Main Riff 1- Synth]
|--------------------------------------------------------------------|
|-----------6-5-6~~~-5~~~------------6-5-3~~~~~~---------------------|
|-5~------5---------------5~------5~-----3~~~~~~---------------------|
|----5~----------------------5~--------------------------------------|
|--------------------------------------------------------------------|
|--------------------------------------------------------------------|

|-----------3-2-3~~~-2~~~------------3-2-0~~~~~~---------------------|
|-3~------3---------------3~------3~-----1~~~~~~---------------------|
|----2~----------------------2~--------------------------------------|
|--------------------------------------------------------------------|
|--------------------------------------------------------------------|
|--------------------------------------------------------------------|



[Main Riff 2- Sounds Like an electric guitar]
|------6~~5~~-----------------6~~5~6~8~~~~6~~8~6~5~------5~~~~~~~~10~~~~~~~~|
|-6~~~~------8~~~5~8~~~~6~~~~----------------------8~7~8~-------------------|
|---------------------------------------------------------------------------|
|---------------------------------------------------------------------------|
|---------------------------------------------------------------------------|
|---------------------------------------------------------------------------|

|-10~-----10~---10~----12~~~-15-15-15-15-15-15-15-15--(or just play the 15 eight times)-|
|----10~~~---10~---13~~------13-13-13-13-13-13-13-13------------------------|
|----------------------------0--0--0--0--0--0--0--0-------------------------|
|---------------------------------------------------------------------------|
|---------------------------------------------------------------------------|
|---------------------------------------------------------------------------|

|-10~-----10~~12~10~---10~------12~~~~13~~12~~------------------------------|
|----10~~~----------13~---13~-----------------13~---------------------------|
|----------------------------12~--------------------------------------------|
|---------------------------------------------------------------------------|
|---------------------------------------------------------------------------|
|---------------------------------------------------------------------------|



[Riff 3- Soft Synth Part] (alot going on here so listen closely)
|--------17~15~----------------------------------------------15~~-----------| x2
|-18~~~~~------18~17~18~17~15~---15~-15~~15~15~15~~17~~17~18~---------------|
|-----------------------------17~-------------------------------------------|
|---------------------------------------------------------------------------|
|---------------------------------------------------------------------------|
|---------------------------------------------------------------------------|
Heavy synth
|-1~~~~~~1~~3~~--------------------| x2
|--------------1~~~~~~~------------|
|--------------3~~~~~~~------------|
|----------------------------------|
|----------------------------------|
|----------------------------------|



[Building Outro]
|-6---6---6--8---8---8--5---5---5--5---5---5--6---6---6--8---8---8--17---17---17---17--17---17---17----|
|-6---6---6--8---8---8--5---5---5--5---5---5--6---6---6--8---8---8--15---15---15---15--15---15---15----|
|-5---5---5--7---7---7--7---7---7--7---7---7--5---5---5--7---7---7--13---13---13---13--13---13---13----|
|---------------------------------------------3---3---3--5---5---5--13---13---13---13--13---13---13----|
|-------------------------------------------------------------------0~~~~~~~~~~~~~~~~~~~~~~~~----------|
|------------------------------------------------------------------------------------------------------|
Immediately go into the Intro part that gets repeated....



Yes, This is just a basic run through and ive missed alot of parts
Iv'e just tried to cram the most important parts into one playable piece.
So if you want a certain part done, just him me up and ill do it.
Feel free to make things easier and stuff by cutting notes out and whatever.
but yeah, hope you enjoy 


            
            
Suggest correction
Creating personal tab
Creating personal tab
You can edit any tab online and save it as your Personal.

You can edit, replace or remove any tab part or add personal notes – all changes will be seen only by you.

Personal tabs can be accessed anytime from any device, even offline.
Learn more »
Give kudos to tab author, rate the tab!
1 2 3 4 5
comments
print report bad tab
guest
You may want to rate the tab now too:
select rating
Wanna post a correction for this tab? Suggest correction