Oops, an error
Loading. Please wait.

Punk-O-Matic Theme bass

version 1
version 1

Whole song

Interactive

841 views 1 this week
6 commentsread comments
1 2 3 4 5
x 4
add to favorites
×
Save as Personal and add changes to this tab that will be seen only by you. Learn more ›
×
You can save this tab as Personal to edit and correct it or add notes. All changes will be seen only by you. Learn more »
launch autoscroll
font size
0
reset
guitar tuner
edit
Autoscroll
slow
fast
+/-
esc
set tempo
stop
                           punk o matic

                              1-12
        i looked all over the internet and did'nt find a bass tab            for   this 
This game is really fun it lets you compose your own punk music.



Tab 0
---------------------------------------|          
---------------------------------------|
-----------55555555--------------------|    
--77777777----------33333333--55555555-|

Tab 1
---------------------------------|
---------------------------------|
--------5555---------------------|
--7777----------3333---5555------|

Tab 2
------------------------------------------------|
------------------------------------------------|
------------55555555----------------------------|
-77777777--------------33333333--55555555-------|

Tab 3
-------------------------|
-------------------------|
-------5555--------------|
-7777--------3333--5555--|

Tab 4
-------------------------------------------------|
-------------------------------------------------|
------------------------------------------5555---|
--3333--5555--77777777--3333--5555--7777---------|


Tab 5
---------------------|
---------------------|
------------555------|
--777--333------555--|

tab

Tab 7
---------------------|
---------------------|
--------55-----------|
--7777------55-------|

Tab 8
--------------------------------------------------|
--55555555--77777777--99999999--1212121212121212--|
--------------------------------------------------|
--------------------------------------------------|
Tab 9
----------------------------------------|
----------------------------------------|
----------555555--101010101010--777777--|
--777777--------------------------------|

Tab 10
------------------------------------|
------------------------------------|      play it 2 times
------------------------------------|
--777777777--33333333---------------|

Tab 11
---------|
---------|                  number 12 is the same but short
---------|
-7-------|

                Thanks for visited my tab, hope you like it.

                             cono.

            
            
Suggest correction
Creating personal tab
Creating personal tab
You can edit any tab online and save it as your Personal.

You can edit, replace or remove any tab part or add personal notes – all changes will be seen only by you.

Personal tabs can be accessed anytime from any device, even offline.
Learn more »
comments
print report bad tab
6 comments total. Showing first comments.
0 reply
Anden 10 Sep 23, 2006 11:37 AM

it ain´t no bass in that game, its 2 guitars! you can download the tabs from the game on evil dogs website i think it is

http://www.evil-dog.net or something

0 reply
cono the guitar 82 Oct 04, 2006 05:01 AM

listen closer ther is bass

-1 reply
Smidge128 10 Nov 11, 2006 12:41 PM

DUDE. IT'S TWO GUITARS. IT'S ON THE SITE. The tab for what you're doing is actually played

|---------------------------------|
|---------------------------------|
|---------7-7-7-7-----------------|
|-9-9-9-9-7-7-7-7-5-5-5-5-7-7-7-7-|
|-9-9-9-9-5-5-5-5-5-5-5-5-7-7-7-7-|
|-7-7-7-7---------3-3-3-3-5-5-5-5-| Duh. Moron. Listen closely and it's a guitar.

guest
You may want to rate the tab now too:
select rating
Wanna post a correction for this tab? Suggest correction