Oops, an error
Loading. Please wait.

Shin Megami Tensei Persona 4 - Your Affection bass

version 1
version 1

Whole song

Interactive

4,274 views 9 this week
1 commentread comment
1 2 3 4 5
3 more votes to show rating
add to favorites
×
Save as Personal and add changes to this tab that will be seen only by you. Learn more ›
×
You can save this tab as Personal to edit and correct it or add notes. All changes will be seen only by you. Learn more »
launch autoscroll
font size
0
reset
guitar tuner
edit
Autoscroll
slow
fast
+/-
esc
set tempo
stop
YOUR AFFECTION
Meguro Shoji

Standard Tuneing

Intro
|--------|-------------------------|
|--2-1---|*-----2-1------2-2-1----*|
|------4-|*---2-----4--2-------4--*|
|--------|-------------------------|


Verse
|-----------------------------------------------------------------------------|
|-----2-2-1-----------------2-----------2-2-1--------------4---2---1----------|
|---2-------4--4-4--4-2-2--2-2-2-4-4--2-------4--4-4-4--2-2-2-2-2-2-2---------|
|-----------------------------------------------------------------------------|


Chorus
|------------------------------------------------1--1--1--1-1--1--3-4-3--4--4--4h6-6/8-9-8-6--|
|-------------------------1--1--1--1--1-1--1--1-----------------------------------------------|
|--2--2--2--2--2-2--2--2----------------------------------------------------------------------|
|---------------------------------------------------------------------------------------------|

|------------------------------------------------1--1--1--1-1--1--3-4-3--4--4--4h6-6/8-9-8-6--|
|-------------------------2--2--2--2--1-1--1--1-----------------------------------------------|
|--2--2--2--2--2-2--2--2----------------------------------------------------------------------|
|---------------------------------------------------------------------------------------------|

|---------------------------------------------------------------------------------------------|
|-------------------------1--1--1--1--1-1--1--1--2--2--2--2-2--2------------------------------|
|--2--2--2--2--2-2--2--2------------------------------------------2-2-2h4-4/6-7-4-------------|
|---------------------------------------------------------------------------------------------|

|---------------------------------------------------------------------------------------------|
|-------------------------4--4--4--4--4-4--4--4---------------------1-------4-4-2---2-1-------|
|--2--2--2--2--2-2--2--2-------------------------2--2--2--2-2--2--4---4--2--------2-----2-4-2-|
|---------------------------------------------------------------------------------------------|

            
            
Suggest correction
Creating personal tab
Creating personal tab
You can edit any tab online and save it as your Personal.

You can edit, replace or remove any tab part or add personal notes – all changes will be seen only by you.

Personal tabs can be accessed anytime from any device, even offline.
Learn more »
Give kudos to tab author, rate the tab!
1 2 3 4 5
comments
print report bad tab
1 comment total.
0 reply
Herpaderphero 10 Dec 31, 2012 09:33 PM

Who tabbed this??

guest
Wanna post a correction for this tab? Suggest correction