Oops, an error
Loading. Please wait.

Silent Hill - Promise tab

version 1
version 1

Whole song

Interactive

105,160 views 255 this week
3 commentsread comments
1 2 3 4 5
x 21
add to favorites
×
Save as Personal and add changes to this tab that will be seen only by you. Learn more ›
×
You can save this tab as Personal to edit and correct it or add notes. All changes will be seen only by you. Learn more »
launch autoscroll
font size
0
reset
how to read this tab
guitar tuner
edit
Autoscroll
slow
fast
+/-
esc
set tempo
stop
Author
¯¯¯¯¯¯¯¯¯¯¯¯¯¯¯¯¯¯¯¯¯¯¯¯¯¯¯¯¯¯¯¯
    Silent Hill 2 - Promise
________________________________
 ¯¯¯¯¯¯¯¯¯¯¯¯¯¯¯¯¯¯¯¯¯¯¯¯¯¯¯¯¯¯

        E A D G B e

Am(1) -  x 0 2 2 1 0
F     -  1 3 3 2 1 1
C(1)  -  x 3 2 0 1 0
G     -  3 5 5 4 3 3

Em    -  0 2 2 0 0 0
C(2)  -  x 3 5 5 5 3
Am(2) -  5 7 7 5 5 5
B     -  x 2 4 4 4 2


:.:.:.:.:.:.:.:.:.:.:.:.:.:.:.:.:.:.:.:.:.:.:.:.:.:.:.:.:.:.:.:.:.:.:.:.:.:.:.:.:


Seccond Guitar:
¯¯¯¯¯¯¯¯¯¯¯¯¯¯¯

Base 1: (intervals [0:00 ~ 0:55] - [1:18 ~ 2:00] - [3:58 ~ 4:40])
¯¯¯¯¯¯¯
       Am(1)            F            C(1)             G
e|--------------|--------------|--------------|--------------|
B|--------------|--------------|--------------|--------------|
G|--------5-----|--------5-----|--------5-----|--------4-----|
D|-----2-----2--|-----3-----3--|-----5-----5--|-----5-----5--|
A|--0-----------|--0-----------|--3-----------|--------------|
E|--------------|--------------|--------------|--3-----------|


Base 2: (intervals [0:55 ~ 1:17] - [2:01 ~ 2:23])
¯¯¯¯¯¯¯
Am(2)     F         G         F


Bridge: (intervals [2:23 ~ 2:46] - [3:32 ~ 3:52])
¯¯¯¯¯¯¯
Em        C(1)


Base 3: (interval [2:48 ~ 3:32])
¯¯¯¯¯¯¯
Em        C(2)      Am(2)     B


:.:.:.:.:.:.:.:.:.:.:.:.:.:.:.:.:.:.:.:.:.:.:.:.:.:.:.:.:.:.:.:.:.:.:.:.:.:.:.:.:


Lead Guitar:
¯¯¯¯¯¯¯¯¯¯¯¯

Form 1: (interval [0:21 ~ 0:32] - [1:28 ~ 1:39])
¯¯¯¯¯¯¯
e|-----12--|--15-----|-----12--|---------|
B|--15-----|-----13--|--10-----|--13-----|
G|---------|---------|---------|-----12--|
D|---------|---------|---------|---------|
A|---------|---------|---------|---------|
E|---------|---------|---------|---------|

Form 2: (interval [0:33 ~ 0:54] - [1:40 ~ 2:00])
¯¯¯¯¯¯¯
e|------------------------------------------|-----------------------------------|
B|------------------------------------------|-----------------------/13-13--12--|
G|-/12--12-12--10-9------------9------------|--/12--12-12--14-12----------------|
D|---------------------12--12-----12----10--|-----------------------------------|
A|------------------------------------------|-----------------------------------|
E|------------------------------------------|-----------------------------------|

Form 3: (intervals - [0:55 ~ 1:16] - [2:01 ~ 2:23])
¯¯¯¯¯¯¯
e|---------------------10----------------------------------------10-------10-12-|
B|--13----12-10--12-13-------13-12-12-13-12-10----12-13-10-12-13-------13-------|
G|------------------------------------------------------------------------------|
D|------------------------------------------------------------------------------|
A|------------------------------------------------------------------------------|
E|------------------------------------------------------------------------------|

Form 4: (intervals [2:23 ~ 2:46] - [3:32 ~ 3:52])
¯¯¯¯¯¯¯
e|------------------|
B|------------------|
G|------------------|
D|------12--9~------|
A|--/9--------------|
E|------------------|

Form 5: (interval [2:47 ~ 3:09])
¯¯¯¯¯¯¯
e|----------------|----------------|----------------|------------------|
B|----------------|----------------|----------------|------------------|
G|----9-11-/12~---|----9-11-/12~---|----9-11-/12~---|----9-11-/12---11-|
D|--9-------------|--9-------------|--9-------------|--9---------------|
A|----------------|----------------|----------------|------------------|
E|----------------|----------------|----------------|------------------|

Form 6: (interval [3:09 ~ 3:31])
¯¯¯¯¯¯¯
e|----------------|----------------|----------------|------------------|
B|-------10-/12~--|-------10-/12~--|-------10-/12~--|-------10-/12--10-|
G|--11-12---------|--11-12---------|--11-12---------|--11-12-----------|
D|----------------|----------------|----------------|------------------|
A|----------------|----------------|----------------|------------------|
E|----------------|----------------|----------------|------------------|


:.:.:.:.:.:.:.:.:.:.:.:.:.:.:.:.:.:.:.:.:.:.:.:.:.:.:.:.:.:.:.:.:.:.:.:.:.:.:.:.:


The Order:
¯¯¯¯¯¯¯¯¯¯
_____________________________
¯¯¯¯¯¯¯¯¯¯¯¯¯¯|¯¯¯¯¯¯¯¯¯¯¯¯¯¯
Sec. Guitar:  | Lead Guitar:
______________|______________
¯¯¯¯¯¯¯¯¯¯¯¯¯¯|¯¯¯¯¯¯¯¯¯¯¯¯¯¯
Base 1 - x10  | Form 1
              | Form 2 - x2
______________|______________
              |
Base 2 - x4   | Form 3 - x2
______________|______________
              |
Base 1 - x8   | Form 1
              | Form 2 - x2
______________|______________
              |
Base 2 - x4   | Form 3 - x2
______________|______________
              |
Bridge - x4   | Form 4 - x4
______________|______________
              |
Base 3 - x4   | Form 5 - x2
              | Form 6 - x2
______________|______________
              |
Bridge - x4   | Form 4 - x4
______________|______________
              |
Base 1 - x4   |
______________|______________


Guitar Tab By DarthPolly

            
            
Suggest correction
Creating personal tab
Creating personal tab
You can edit any tab online and save it as your Personal.

You can edit, replace or remove any tab part or add personal notes – all changes will be seen only by you.

Personal tabs can be accessed anytime from any device, even offline.
Learn more »
comments
print report bad tab
3 comments total.
0 reply
v4mpir33 10 Feb 18, 2014 02:43 PM

What is the harmony for the Form 6?

0 reply
Nicholas339 10 Sep 06, 2017 01:27 PM

Simple and fluid. Love it

0 reply
awasthi.ans 10 Dec 08, 2017 09:07 AM

I was looking for a nice melancholic song to lose myself in as a woman just broke my heart! This tab is great and you are great man, you made my day

guest
You may want to rate the tab now too:
select rating
Wanna post a correction for this tab? Suggest correction