Oops, an error
Loading. Please wait.

Silent Hill - Theme Of Laura tab

version 3
version 3
44,912 views 99 this week
5 commentsread comments
1 2 3 4 5
x 12
add to favorites
×
Save as Personal and add changes to this tab that will be seen only by you. Learn more ›
×
You can save this tab as Personal to edit and correct it or add notes. All changes will be seen only by you. Learn more »
launch autoscroll
font size
0
reset
how to read this tab
guitar tuner
edit
Autoscroll
slow
fast
+/-
esc
set tempo
stop
Author
Tabbers playing skills
advanced
Silent Hill 2 - Theme of Laura - Akira Yamaoka
Tabbed by: Solced
Tuning: E A D G B e

  Main Chords 
  Just the chords, i dont tabbed out how often you´ve to strum each chord!
  The Main Chords - played the most of the time with the whole song
  Listen to the Record to find out the right timing and rythm

 [Main Chords]
e|-(0)---(0)---(0)-(0)-(0)-(0)-----(0)---(0)---(0)-(0)-(0)-(0)--------------|
B|-(0)---(0)---(0)-(0)-(0)-(0)-----(0)---(0)---(0)-(0)-(0)-(0)--------------|
G|-(0)---(0)---(0)-(0)-(0)-(0)-----(0)---(0)---(0)-(0)-(0)-(0)--------------|
D|--2-----4-----5-h-7---5---4-------2-----4-----5-h-7---5---4---------------|
A|--3-----5-----7---7---7---5-------3-----5-----7---7---7---5---------------|
E|--------------------------------------------------------------------------|

 [solo] - pt 1 - at 00:13
e|--------------------------------------------------------------------------|
B|--------------------------------12-12--10------12---12---12---------------|
G|----9----11---12-------11--9---------------9------9----9------9-9\--------|
D|-9-----9-----9------------------------------------------------------------|
A|--------------------------------------------------------------------------|
E|--------------------------------------------------------------------------|

 [solo] - pt 2 - at 00:22
e|--------------------------------------------------------------------------|
B|--------3/5---------------------------------3-----------------------------|
G|------------4~--2-2/4-----------4-2-----------4---------------------------|
D|----2-----------------5----4-5-------2-2/5--------------------------------|
A|--3-----------------------------------------------------------------------|
E|--------------------------------------------------------------------------|

e|--------------------------------------------------------------------------|
B|--------3/5--------------------------3-3/5--------------------------------|
G|------------4~--2-2/4-----------4-2-----------4---------------------------|
D|----2-----------------5----4-5--------------------------------------------|
A|--3-----------------------------------------------------------------------|
E|--------------------------------------------------------------------------|

 [solo] - pt 3  - at 00:32
  Notes for Tremolo Picking
e|----12-12-12-12-12---14-14-14-14-14---15-15-15-15-15--------19------------|
B|---------------------------------------------------------17---------------|
G|--------------------------------------------------------------------------|
D|--------------------------------------------------------------------------|
A|--------------------------------------------------------------------------|
E|--------------------------------------------------------------------------|

e|----12-12-12-12-12---10-10-10-10-10---12-12-12-12-12---14-14-14-14-14-----|
B|--------------------------------------------------------------------------|
G|--------------------------------------------------------------------------|
D|--------------------------------------------------------------------------|
A|--------------------------------------------------------------------------|
E|--------------------------------------------------------------------------|

 [Chords] for the [Bridge] - at 00:42
  Listen to the Record to find out the right timing and rythm
e|----0----2-------------------------0----2---------------------------------|
B|----0----0-------------------------0----0---------------------------------|
G|----0----0---let the chord ring----0----0---let the chord ring------------|
D|----0----0-------------------------0----0---------------------------------|
A|--2-2----2-----4-3-2-------------2-2----2-----4-3-2-----------------------|
E|--0-0----0-----------------------0-0----0---------------------------------|

 [solo] - pt 4 - at 01:00
e|--------------------------------------------------------------------------|
B|---------8--7-7-7/8\7--5\0-0----------------------------------------------|
G|------5-------------------------------------------------------------------|
D|--5/7---------------------------------------------------------------------|
A|--------------------------------------------------------------------------|
E|--------------------------------------------------------------------------|

e|--------------------------------------------------------------------------|
B|---------8--7-7-7h8p7-----------------------------------------------------|
G|------5---------------9/14------------------------------------------------|
D|--5/7---------------------------------------------------------------------|
A|--------------------------------------------------------------------------|
E|--------------------------------------------------------------------------|

 [solo 2] - pt 4 - at 01:20           3x
e|--------------------------------------------------------------------------|
B|--------------8-10--------------------------------------------------------|
G|------5-7-7/9------9------------------------------------------------------|
D|--5/7---------------------------------------------------------------------|  
A|--------------------------------------------------------------------------|
E|--------------------------------------------------------------------------|

 [solo] in the background of solo 2 - pt 4 - at 01:20
e|--------------------------------------------------------------------------|
B|--8-8-7-8-8/10--------8-8-7-8-8-----8-8-7-8\---1/5\1--1/5\1--1/5\1--1-5\1-|
G|---------------9----------------9-----------------------------------------|
D|--------------------------------------------------------------------------|
A|--------------------------------------------------------------------------|
E|--------------------------------------------------------------------------|

 [solo] - pt 5 - at 01:36
e|--------------------------------------------------------------------------|
B|--8-8-8-7-7-8\10----------------------------------------------------------|
G|-----------------9\0/8-8-9-4----------------------------------------------|
D|--------------------------------------------------------------------------|
A|--------------------------------------------------------------------------|
E|--------------------------------------------------------------------------|

Main Chord Picking at the End in the Background
  at 2:20            3x
e|--------------------------------------------------------------------------|
B|--------------------------------------------------------------------------|
G|------0---------0-------0-------------------------------------------------|
D|----2---2-----4---4---5---5-5-5-h-7-7-5--4--------------------------------|
A|--3-------3/5-------7-------7-7-h-7-7-7--5--------------------------------|
E|--------------------------------------------------------------------------|

  at 2:34            1x
e|--------------------------------------------------------------------------|
B|--------------------------------------------------------------------------|
G|------0---------0-------0---------0---------------------------------------|
D|----2---2-----4---4---2---2-----4---4-------------------------------------|
A|--3-------3/5-------3-------3/5-------------------------------------------|
E|--------------------------------------------------------------------------|

And at the very END
e|----0----2-------------------------0----2---------------------------------|
B|----0----0-------------------------0----0---------------------------------|
G|----0----0---let the chord ring----0----0---let the chord ring------------|
D|----0----0-------------------------0----0---------------------------------|
A|--2-2----2-----4-3-2-------------2-2----2-----4-3-2-----------------------|
E|--0-0----0-----------------------0-0----0---------------------------------|

************************************

| (n)  Ghost note
| h    Hammer-on
| \    Slide down
| /    Slide up
| ~    Vibrato
| p    Pull-off

************************************

            
            
Suggest correction
Creating personal tab
Creating personal tab
You can edit any tab online and save it as your Personal.

You can edit, replace or remove any tab part or add personal notes – all changes will be seen only by you.

Personal tabs can be accessed anytime from any device, even offline.
Learn more »
comments
print report bad tab
5 comments total. Showing first comments.
0 reply
Solced 250 Sep 15, 2010 06:07 AM

I dont know, why there isn´t the rest of the tab visible.
Sorry for that.

0 reply
Solced 250 Sep 27, 2010 02:21 PM

done. now the whole tab is visible!

+2 reply
v4mpir33 10 Feb 18, 2014 08:31 AM

pretty sure there is Em. Instead of this:
E|----0--- it should be this E|----0---
B|----0--- B|----0---
G|----0--- G|----0---
D|----0--- D|----0---
A|----1--- A|----2---
E|----0--- E|----0---
And instead of:
E|----1--- it should be this E|----2---
B|----0--- B|----0---
G|----0--- G|----0---
D|----0--- D|----0---
A|----1--- A|----2---
E|----0--- E|----0---

guest
You may want to rate the tab now too:
select rating
Wanna post a correction for this tab? Suggest correction