Oops, an error
Loading. Please wait.

Silent Hill - Waiting For You tab

version 1
version 1

Whole song

Interactive

12,135 views 9 this week
2 commentsread comments
1 2 3 4 5
1 last vote to show rating
add to favorites
×
Save as Personal and add changes to this tab that will be seen only by you. Learn more ›
×
You can save this tab as Personal to edit and correct it or add notes. All changes will be seen only by you. Learn more »
launch autoscroll
font size
0
reset
how to read this tab
guitar tuner
edit
Autoscroll
slow
fast
+/-
esc
set tempo
stop
Difficulty
Intro:
Mib-Si-Fa#-Do# / Mib-Si-Fa------------------------------------ |Sib
--------6---6----------|-------9-----11-11-------14-13-|    -- |
----6-7---9----7-6-----|---6-7---6-7-------11----------|    -- |
--8----------------8-6-|-8--------------------11-------|-BIS-- |
-----------------------|-------------------------------|    -- |
-----------------------|-------------------------------|    -- |
-----------------------|-------------------------------|    -- |

|--14-13-14-13~-----11~--|
|---------------14~------|
|------------------------|
|------------------------|
|------------------------|
|------------------------|

Verso:
---------------------|
------7-6--7---7-----|
----8--------8---6-8-|
--8------------------|
---------------------|
---------------------|

Solo 1:
--------------------|---------------6-9-9-9-6-6-6-----6-|
------6/7-6/9-7-6---|-------------7---------------9-9---|
----8-------------6-|-6---6-8-6-8-----------------------|
--8-----------------|---8-------------------------------|
--------------------|-----------------------------------|
--------------------|-----------------------------------|

|------6----------6----------6----------6-------------6-9-11-14-11-9-11-|
|----9---9-7----9---9-7----9---9-7----9---9-7---6-7-9-------------------|
|--8---------8----------8----------8----------8-------------------------|
|-----------------------------------------------------------------------|
|-----------------------------------------------------------------------|
|-----------------------------------------------------------------------|

|--18-18-18-18-16-16-16-14-14-14-13-14-13-11-|
|--------------------------------------------|
|--------------------------------------------|
|--------------------------------------------|
|--------------------------------------------|
|--------------------------------------------|

Solo 2:
---------------------------------|
--7-7-7--6-6--7--9---------7-----|
--------------------8-8------6-8-|
------------------------8--------|
---------------------------------|
---------------------------------|

intro:

Verso:
Mib         Mib
Your gentle voice I hear
Mib         Mib
Your words echo inside me
Mib         Mib
You said You long for me
Mib         Mib
and that you love me

Si         Do#
And I want to see you too
Si         Do#
feels just like I'm falling
Si         Do#
Is there nothing I can do
Si         Do#
wonder if you hear my calling

Coro:
Mib    Si     Fa#     Sib
I'm here and waiting for you
Mib    Si     Fa#     Sib
where are you, I can't find you
Mib    Si     Fa#     Sib
I'm here and waiting for you
 Mib    Si     Fa#     Sib
I'll wait forever for you

Verso 2:
Mib         Mib
Mom's gone to heaven now
Mib         Mib
why won't she come back down
Mib         Mib
does she have someone
Mib         Mib
she loves more than me
Si         Do#
I thought I could love you better
Si         Do#
we were always together
Si         Do#
if we took some time apart
 Si         Do#
you would finally know my heart

Coro:
Mib    Si     Fa#     Sib
I'm here and waiting for you
Mib    Si     Fa#     Sib
where are you, I can't find you
Mib    Si     Fa#     Sib
I'm here and waiting for you
 Mib    Si     Fa#     Sib
I'll wait forever for you

Solo 1:

Versillo:
Mib      Mib        Do#       Do#
I fell in love with you and now you're gone
Mib      Mib        Do#       Do#
there's nothing left in my lonely room without you

Coro:
Mib    Si     Fa#     Sib
I'm here and waiting for you
Mib    Si     Fa#     Sib
where are you, I can't find you
Mib    Si     Fa#     Sib
I'm here and waiting for you
 Mib    Si     Fa#     Sib
I'll wait forever for you

Coro fuerte:
Mib    Si     Fa#     Sib
I'm here and waiting for you
 Mib    Si     Fa#     Sib
where are you, I can not I can not find you
Mib    Si     Fa#     Sib
I'm waiting for you
Mib    Si     Fa#     Sib
where are you where are you

Solo 2:

FIN.

falta una parte del solo 2, disculpen q no la haya terminado...cualqquier consult 
ah: cesar_anth@hotmail.com
www.sorceres.tk  <-- esta es la web de mi actual banda.

            
            
Suggest correction
Creating personal tab
Creating personal tab
You can edit any tab online and save it as your Personal.

You can edit, replace or remove any tab part or add personal notes – all changes will be seen only by you.

Personal tabs can be accessed anytime from any device, even offline.
Learn more »
Give kudos to tab author, rate the tab!
1 2 3 4 5
comments
print report bad tab
2 comments total.
0 reply
Vlad V. 82 Sep 01, 2008 06:48 AM

Very good tab for one of the most beautiful songs I have heard in my life!

0 reply
EnDZYm3 20 Apr 21, 2009 07:16 PM

You found the Lead Pipe...
Take it?
[yes] no

I love this song; Nice upload!

guest
Wanna post a correction for this tab? Suggest correction