Oops, an error
Loading. Please wait.

Skyrim - Main Theme solo tab

version 2
version 2

Solo

Whole song

Interactive

2,641 views 9 this week
1 commentread comment
1 2 3 4 5
x 5
add to favorites
×
Save as Personal and add changes to this tab that will be seen only by you. Learn more ›
×
You can save this tab as Personal to edit and correct it or add notes. All changes will be seen only by you. Learn more »
launch autoscroll
font size
0
reset
how to read this tab
guitar tuner
edit
Autoscroll
slow
fast
+/-
esc
set tempo
stop
Author
Difficulty
-------------------------------------------------------------------------------
                             Dragonborn
-------------------------------------------------------------------------------
Tabbed by: Zain

Tuning: Standard

e|-------------0-2---2-0-5----------|
B|---0-2-3---3---------------3-2-0--|
G|----------------------------------|    Block One
D|----------------------------------|
A|----------------------------------|
E|----------------------------------|


e|-------------0-2---2-5-7---5-9-7--|
B|---0-2-3---3----------------------|
G|----------------------------------|
D|----------------------------------|    Block Two 
A|----------------------------------|
E|----------------------------------|

e|-7-9-10-9-7-5-3-2-0---3-2-0-------|
B|----------------------------------|
G|----------------------------------|    Block Three
D|----------------------------------|
A|----------------------------------|
E|----------------------------------|

Chords go as:

Block One

Bm   D   A   E


Block Two 

Bm   D   Em  Em 


Block Three

D    A   E   E

            
            
Suggest correction
Creating personal tab
Creating personal tab
You can edit any tab online and save it as your Personal.

You can edit, replace or remove any tab part or add personal notes – all changes will be seen only by you.

Personal tabs can be accessed anytime from any device, even offline.
Learn more »
comments
print report bad tab
1 comment total.
0 reply
boernii 34 Jul 03, 2015 08:57 AM

Lack of accuracy. Clearly wrong. Sorry you better fix this ;-) Maybe some typos maybe you misheared it. this does not work. Not completely wrong. Thanks anyway

guest
You may want to rate the tab now too:
select rating
Wanna post a correction for this tab? Suggest correction