Oops, an error
Loading. Please wait.

Skyrim - Main Theme tab

version 3
version 3

Whole song

Interactive

1,180 views 33 this week
1 commentread comment
1 2 3 4 5
x 3
add to favorites
×
Save as Personal and add changes to this tab that will be seen only by you. Learn more ›
×
You can save this tab as Personal to edit and correct it or add notes. All changes will be seen only by you. Learn more »
launch autoscroll
font size
0
reset
how to read this tab
guitar tuner
edit
Autoscroll
slow
fast
+/-
esc
set tempo
stop
Difficulty
About this tab version
The very basics of the theme. Was this info helpful? Yes No
E|-------------------|-----------------------| REPEATS THROUGHOUT SONG
B|-------------------|-----------------------|
G|-------------------|-----------------------|
D|--4----------2-----|---4---------2---------|
A|--2-----5----0--2--|---2----5----0--2------|
E|--------3-------0--|--------3-------0------|

E|---------------------------0------------------------------------------------|
B|--3-2-3----3-2-3-------3-2---3-2-0------------------------2-3---------------|
G|-----------------------------------4-2-4----4-2-4-----4-2-----2-4-----------|
D|----------------------------------------------------------------------------|
A|----------------------------------------------------------------------------|
E|----------------------------------------------------------------------------|

E|---------------------------0------------------------------------------------|
B|-----3-2-3-3-2-3-------3-2----3-2-0--------------------------2-3------------|
G|--------------------------------------4-2-4----4-2-4-----4-2-----2-4--------|
D|----------------------------------------------------------------------------|
A|----------------------------------------------------------------------------|
E|----------------------------------------------------------------------------|

E|----------------------------------------------------------------------------|
B|---3---3-5-7---7-10-5---3-2-0----0-2-3-3----5-7-7-------10-12-------10-14-12|
G|----------------------------------------------------------------------------|
D|----------------------------------------------------------------------------|
A|----------------------------------------------------------------------------|
E|----------------------------------------------------------------------------|

E|-------------------------------------------|
B|----12-14-15-14-12-10-8-7-5-5------3-7-5---| 
G|-------------------------------------------|
D|-------------------------------------------|
A|-------------------------------------------|
E|-------------------------------------------|

E|---------------------------0------------------------------------------------|
B|--3-2-3----3-2-3-------3-2---3-2-0------------------------2-3---------------|
G|-----------------------------------4-2-4----4-2-4-----4-2-----2-4-----------|
D|----------------------------------------------------------------------------|
A|----------------------------------------------------------------------------|
E|----------------------------------------------------------------------------|

E|---------------------------0------------------------------------------------|
B|-----3-2-3-3-2-3-------3-2----3-2-0--------------------------2-3------------|
G|--------------------------------------4-2-4----4-2-4-----4-2-----2-4--------|
D|----------------------------------------------------------------------------|
A|----------------------------------------------------------------------------|
E|----------------------------------------------------------------------------|

            
            
Suggest correction
Creating personal tab
Creating personal tab
You can edit any tab online and save it as your Personal.

You can edit, replace or remove any tab part or add personal notes – all changes will be seen only by you.

Personal tabs can be accessed anytime from any device, even offline.
Learn more »
Give kudos to tab author, rate the tab!
1 2 3 4 5
comments
print report bad tab
1 comment total.
+1 reply
smosh904 10 Feb 24, 2017 03:00 PM

the ending doesnt really sound like what i thought it would sound like but all and all, amazing, love when you get to the highest mark, it sounds exactly like the real song and if u put on metal 2000?? oh u will have a lot of fun ;)

thanks man

guest
Wanna post a correction for this tab? Suggest correction