Oops, an error
Loading. Please wait.

Sonic Adventure 2 - Egg Golem Boss tab

version 1
version 1

Whole song

Interactive

1,593 views 3 this week
2 commentsread comments
1 2 3 4 5
x 3
add to favorites
×
Save as Personal and add changes to this tab that will be seen only by you. Learn more ›
×
You can save this tab as Personal to edit and correct it or add notes. All changes will be seen only by you. Learn more »
launch autoscroll
font size
0
reset
how to read this tab
guitar tuner
edit
Autoscroll
slow
fast
+/-
esc
set tempo
stop
Author
Difficulty
Artist: Sonic Adventure 2 Battle
Stage: Egg Golem Boss
Tuning: Standard (EADGBE)
Tabber: Dan Fallows (Sick of you)

This sounds 100% correct to me.
Any questions comments, Email: fallows9@hotmail.co.uk

Intro
E----------------------------|
B----------------------------|
G--121212/13\12/15\13\10/12--|
D--x-x-x-/x-\x-/x-\-x\-x/-x--|
A--101010/11\10/13\11\-9/10--|
E----------------------------|

Verse after solo

You can figure out the strumming pattern yourself, its not hard at all.  Just fast down 
down up patterns.
E-------------------|-----------------|------------------|
B-------------------|-----------------|------------------|
G--10-10--10-10--11-|-10-10--10-10-13-|-10-10--10-10-11--|
D--10-10--10-10--11-|-10-10--10-10-13-|-10-10--10-10-11--|
A---8--8--8--8---9--|-8--8----8--8-11-|--8--8---8--8--9--|
E-------------------|-----------------|------------------|

Thats it, except for the solo bit before the verse, which i will submit once i figured 
out!

            
            
Suggest correction
Creating personal tab
Creating personal tab
You can edit any tab online and save it as your Personal.

You can edit, replace or remove any tab part or add personal notes – all changes will be seen only by you.

Personal tabs can be accessed anytime from any device, even offline.
Learn more »
Give kudos to tab author, rate the tab!
1 2 3 4 5
comments
print report bad tab
2 comments total.
0 reply
Teddy B. 10 Nov 21, 2007 02:52 PM

The parts you tabbed soud good. i noticed the date on it did you give up on the solo? That's very sad... please?

0 reply
DarkNightmare 50 Apr 01, 2008 06:40 PM

i think it would sound better if it was dropped to a D and played like this:

D|9-9--9---9---9-7--7---7---7--7-5---5---5---5--5-4---4---4---4--4-2--2---2---2--2-4--4---4---4--4-5--5---5---5--5-4-7
A|9-9--9---9---9-7--7---7---7--7-5---5---5---5--5-4---4---4---4--4-2--2---2---2--2-4--4---4---4--4-5--5---5---5--5-4-7
D|9-9--9---9---9-7--7---7---7--7-5---5---5---5--5-4---4---4---4--4-2--2---2---2--2-4--4---4---4--4-5--5---5---5--5-4-7

ya know, then

11-11---11---11--12-11--11---11---11--14-11--11---11---11--12-11
11-11---11---11--12-11--11---11---11--14-11--11---11---11--12-11
11-11---11---11--12-11--11---11---11--14-11--11---11---11--12-11

guest
You may want to rate the tab now too:
select rating
Wanna post a correction for this tab? Suggest correction